  0
SECTION
  2
HEADER
  9
$ACADVER
  1
AC1014
  9
$ACADMAINTVER
 70
     0
  9
$DWGCODEPAGE
  3
DOS850
  9
$INSBASE
 10
0.0
 20
0.0
 30
0.0
  9
$EXTMIN
 10
-315.5381
 20
-315.538
 30
1.0
  9
$EXTMAX
 10
315.5381
 20
315.538
 30
1.0
  9
$LIMMIN
 10
0.0
 20
0.0
  9
$LIMMAX
 10
0.0
 20
0.0
  9
$ORTHOMODE
 70
     0
  9
$REGENMODE
 70
     1
  9
$FILLMODE
 70
     1
  9
$QTEXTMODE
 70
     0
  9
$MIRRTEXT
 70
     1
  9
$DRAGMODE
 70
     2
  9
$LTSCALE
 40
1.0
  9
$OSMODE
 70
     0
  9
$ATTMODE
 70
     1
  9
$TEXTSIZE
 40
0.2
  9
$TRACEWID
 40
0.05
  9
$TEXTSTYLE
  7
STANDARD
  9
$CLAYER
  8
0
  9
$CELTYPE
  6
CONTINUOUS
  9
$CECOLOR
 62
   256
  9
$CELTSCALE
 40
1.0
  9
$DELOBJ
 70
     1
  9
$DISPSILH
 70
     0
  9
$DIMSCALE
 40
1.0
  9
$DIMASZ
 40
0.18
  9
$DIMEXO
 40
0.0625
  9
$DIMDLI
 40
0.38
  9
$DIMRND
 40
0.0
  9
$DIMDLE
 40
0.0
  9
$DIMEXE
 40
0.18
  9
$DIMTP
 40
0.0
  9
$DIMTM
 40
0.0
  9
$DIMTXT
 40
0.18
  9
$DIMCEN
 40
0.09
  9
$DIMTSZ
 40
0.0
  9
$DIMTOL
 70
     0
  9
$DIMLIM
 70
     0
  9
$DIMTIH
 70
     1
  9
$DIMTOH
 70
     1
  9
$DIMSE1
 70
     0
  9
$DIMSE2
 70
     0
  9
$DIMTAD
 70
     0
  9
$DIMZIN
 70
     0
  9
$DIMBLK
  1

  9
$DIMASO
 70
     1
  9
$DIMSHO
 70
     1
  9
$DIMPOST
  1

  9
$DIMAPOST
  1

  9
$DIMALT
 70
     0
  9
$DIMALTD
 70
     2
  9
$DIMALTF
 40
25.4
  9
$DIMLFAC
 40
1.0
  9
$DIMTOFL
 70
     0
  9
$DIMTVP
 40
0.0
  9
$DIMTIX
 70
     0
  9
$DIMSOXD
 70
     0
  9
$DIMSAH
 70
     0
  9
$DIMBLK1
  1

  9
$DIMBLK2
  1

  9
$DIMSTYLE
  2
STANDARD
  9
$DIMCLRD
 70
     0
  9
$DIMCLRE
 70
     0
  9
$DIMCLRT
 70
     0
  9
$DIMTFAC
 40
1.0
  9
$DIMGAP
 40
0.09
  9
$DIMJUST
 70
     0
  9
$DIMSD1
 70
     0
  9
$DIMSD2
 70
     0
  9
$DIMTOLJ
 70
     1
  9
$DIMTZIN
 70
     0
  9
$DIMALTZ
 70
     0
  9
$DIMALTTZ
 70
     0
  9
$DIMFIT
 70
     3
  9
$DIMUPT
 70
     0
  9
$DIMUNIT
 70
     2
  9
$DIMDEC
 70
     4
  9
$DIMTDEC
 70
     4
  9
$DIMALTU
 70
     2
  9
$DIMALTTD
 70
     2
  9
$DIMTXSTY
  7
STANDARD
  9
$DIMAUNIT
 70
     0
  9
$LUNITS
 70
     2
  9
$LUPREC
 70
     4
  9
$SKETCHINC
 40
0.1
  9
$FILLETRAD
 40
0.0
  9
$AUNITS
 70
     0
  9
$AUPREC
 70
     0
  9
$MENU
  1
acad
  9
$ELEVATION
 40
0.0
  9
$PELEVATION
 40
0.0
  9
$THICKNESS
 40
0.0
  9
$LIMCHECK
 70
     0
  9
$BLIPMODE
 70
     1
  9
$CHAMFERA
 40
0.0
  9
$CHAMFERB
 40
0.0
  9
$CHAMFERC
 40
0.0
  9
$CHAMFERD
 40
0.0
  9
$SKPOLY
 70
     0
  9
$TDCREATE
 40
0.000000000
  9
$TDUPDATE
 40
0.000000000
  9
$TDINDWG
 40
0.0000000000
  9
$TDUSRTIMER
 40
0.0000000000
  9
$USRTIMER
 70
     1
  9
$ANGBASE
 50
0.0
  9
$ANGDIR
 70
     0
  9
$PDMODE
 70
     0
  9
$PDSIZE
 40
0.0
  9
$PLINEWID
 40
0.0
  9
$COORDS
 70
     0
  9
$SPLFRAME
 70
     0
  9
$SPLINETYPE
 70
     6
  9
$SPLINESEGS
 70
     8
  9
$ATTDIA
 70
     0
  9
$ATTREQ
 70
     1
  9
$HANDLING
 70
     1
  9
$HANDSEED
  5
12E
  9
$SURFTAB1
 70
     6
  9
$SURFTAB2
 70
     6
  9
$SURFTYPE
 70
     6
  9
$SURFU
 70
     6
  9
$SURFV
 70
     6
  9
$UCSNAME
  2

  9
$UCSORG
 10
0.0
 20
0.0
 30
0.0
  9
$UCSXDIR
 10
1.0
 20
0.0
 30
0.0
  9
$UCSYDIR
 10
0.0
 20
1.0
 30
0.0
  9
$PUCSNAME
  2

  9
$PUCSORG
 10
0.0
 20
0.0
 30
0.0
  9
$PUCSXDIR
 10
1.0
 20
0.0
 30
0.0
  9
$PUCSYDIR
 10
0.0
 20
1.0
 30
0.0
  9
$USERI1
 70
     0
  9
$USERI2
 70
     0
  9
$USERI3
 70
     0
  9
$USERI4
 70
     0
  9
$USERI5
 70
     0
  9
$USERR1
 40
0.0
  9
$USERR2
 40
0.0
  9
$USERR3
 40
0.0
  9
$USERR4
 40
0.0
  9
$USERR5
 40
0.0
  9
$WORLDVIEW
 70
     1
  9
$SHADEDGE
 70
     3
  9
$SHADEDIF
 70
    70
  9
$TILEMODE
 70
     1
  9
$MAXACTVP
 70
    16
  9
$PINSBASE
 10
0.0
 20
0.0
 30
0.0
  9
$PLIMCHECK
 70
     0
  9
$PEXTMIN
 10
1.000000E+20
 20
1.000000E+20
 30
1.000000E+20
  9
$PEXTMAX
 10
-1.000000E+20
 20
-1.000000E+20
 30
-1.000000E+20
  9
$PLIMMIN
 10
0.0
 20
0.0
  9
$PLIMMAX
 10
12.0
 20
9.0
  9
$UNITMODE
 70
     0
  9
$VISRETAIN
 70
     0
  9
$PLINEGEN
 70
     1
  9
$PSLTSCALE
 70
     0
  9
$TREEDEPTH
 70
  3020
  9
$PICKSTYLE
 70
     1
  9
$CMLSTYLE
  2
STANDARD
  9
$CMLJUST
 70
     0
  9
$CMLSCALE
 40
1.0
  9
$PROXYGRAPHICS
 70
     0
  9
$MEASUREMENT
 70
     0
  0
ENDSEC
  0
SECTION
  2
CLASSES
  0
CLASS
  1
LWPOLYLINE
  2
AcDbPolyline
  3
"AutoCAD"
 90
        0
280
     0
281
     1
  0
CLASS
  1
IMAGE
  2
AcDbRasterImage
  3
ISM
 90
      127
280
     0
281
     1
  0
CLASS
  1
OLE2FRAME
  2
AcDbOle2Frame
  3
""
 90
        0
280
     0
281
     1
  0
CLASS
  1
HATCH
  2
AcDbHatch
  3
"ACAD_SEDONA"
 90
        0
280
     0
281
     1
  0
CLASS
  1
DICTIONARYVAR
  2
AcDbDictionaryVar
  3
"AutoCAD"
 90
        0
280
     0
281
     0
  0
CLASS
  1
RASTERVARIABLES
  2
AcDbRasterVariables
  3
ISM
 90
        0
280
     0
281
     0
  0
CLASS
  1
IMAGEDEF
  2
AcDbRasterImageDef
  3
ISM
 90
        0
280
     0
281
     0
  0
CLASS
  1
IMAGEDEF_REACTOR
  2
AcDbRasterImageDefReactor
  3
ISM
 90
        1
280
     0
281
     0
  0
CLASS
  1
IDBUFFER
  2
AcDbIdBuffer
  3
"Acad"
 90
        0
280
     0
281
     0
  0
CLASS
  1
SPATIAL_FILTER
  2
AcDbSpatialFilter
  3
"Acad"
 90
        0
280
     0
281
     0
  0
CLASS
  1
XRECORD
  2
AcDbXrecord
  3
"<Built In>"
 90
        0
280
     0
281
     0
  0
CLASS
  1
SORTENTSTABLE
  2
AcDbSortentsTable
  3
"AutoCAD"
 90
        0
280
     0
281
     0
  0
CLASS
  1
LAYER_INDEX
  2
AcDbLayerIndex
  3
"Acad"
 90
        0
280
     0
281
     0
  0
CLASS
  1
SPATIAL_INDEX
  2
AcDbSpatialIndex
  3
"Acad"
 90
        0
280
     0
281
     0
  0
CLASS
  1
OBJECT_PTR
  2
CAseDLPNTableRecord
  3
"ASE-LPNTableRecord"
 90
        1
280
     0
281
     0
  0
CLASS
  1
LAYOUT
  2
AcDbLayout
  3
"AutoCAD 2000"
 90
        1
280
     0
281
     0
  0
CLASS
  1
PLOTSETTINGS
  2
AcDbPlotSettings
  3
"AutoCAD 2000"
 90
        1
280
     0
281
     0
  0
CLASS
  1
ACDBDICTIONARYWDFLT
  2
AcDbDictionaryWithDefault
  3
"AutoCAD 2000"
 90
        1
280
     0
281
     0
  0
CLASS
  1
ACDBPLACEHOLDER
  2
AcDbPlaceHolder
  3
"AutoCAD 2000"
 90
        1
280
     0
281
     0
  0
CLASS
  1
VBA_PROJECT
  2
AcDbVbaProject
  3
"acadvba"
 90
        1
280
     0
281
     0
  0
CLASS
  1
WIPEOUT
  2
AcDbWipeout
  3
WipeOut|AutoCAD Express Tool|expresstools@autodesk.com
 90
      127
280
     0
281
     1
  0
CLASS
  1
WIPEOUTVARIABLES
  2
AcDbWipeoutVariables
  3
WipeOut|AutoCAD Express Tool|expresstools@autodesk.com
 90
        0
280
     0
281
     0
  0
CLASS
  1
RTEXT
  2
RText
  3
RText|AutoCAD Express Tool|expresstools@autodesk.com
 90
        0
280
     0
281
     1
  0
CLASS
  1
ARCALIGNEDTEXT
  2
AcDbArcAlignedText
  3
ATEXT|AutoCAD Express Tool|expresstools@autodesk.com
 90
        0
280
     0
281
     1
  0
ENDSEC
  0
SECTION
  2
TABLES
  0
TABLE
  2
VPORT
  5
7
100
AcDbSymbolTable
 70
     1
  0
VPORT
  5
15
100
AcDbSymbolTableRecord
100
AcDbViewportTableRecord
  2
*ACTIVE
 70
     0
 10
0.0
 20
0.0
 11
1.0
 21
1.0
 12
6.591288
 22
4.579184
 13
0.0
 23
0.0
 14
1.0
 24
1.0
 15
0.0
 25
0.0
 16
0.0
 26
0.0
 36
1.0
 17
0.0
 27
0.0
 37
0.0
 40
9.158369
 41
0.688564
 42
50.0
 43
0.0
 44
0.0
 50
0.0
 51
0.0
 71
     0
 72
   100
 73
     1
 74
     1
 75
     0
 76
     0
 77
     0
 78
     0
  0
ENDTAB
  0
TABLE
  2
LTYPE
  5
4
100
AcDbSymbolTable
 70
     3
  0
LTYPE
  5
11
100
AcDbSymbolTableRecord
100
AcDbLinetypeTableRecord
  2
BYBLOCK
 70
    64
  3

 72
    65
 73
     0
 40
0.0
  0
LTYPE
  5
12
100
AcDbSymbolTableRecord
100
AcDbLinetypeTableRecord
  2
BYLAYER
 70
    64
  3

 72
    65
 73
     0
 40
0.0
  0
LTYPE
  5
13
100
AcDbSymbolTableRecord
100
AcDbLinetypeTableRecord
  2
CONTINUOUS
 70
    64
  3
Solid line
 72
    65
 73
     0
 40
0.0
  0
ENDTAB
  0
TABLE
  2
LAYER
  5
2
100
AcDbSymbolTable
 70
     2
  0
LAYER
  5
14
100
AcDbSymbolTableRecord
100
AcDbLayerTableRecord
  2
0
 70
     0
 62
     7
  6
CONTINUOUS
  0
LAYER
  5
24
100
AcDbSymbolTableRecord
100
AcDbLayerTableRecord
  2
EBENE_1
 70
     0
 62
     7
  6
CONTINUOUS
  0
ENDTAB
  0
TABLE
  2
STYLE
  5
3
100
AcDbSymbolTable
 70
     1
  0
STYLE
  5
17
100
AcDbSymbolTableRecord
100
AcDbTextStyleTableRecord
  2
STANDARD
 70
     0
 40
0.0
 41
1.0
 50
0.0
 71
     0
 42
0.0
  3
txt
  4

  0
ENDTAB
  0
TABLE
  2
VIEW
  5
5
100
AcDbSymbolTable
 70
     0
  0
ENDTAB
  0
TABLE
  2
UCS
  5
6
100
AcDbSymbolTable
 70
     0
  0
ENDTAB
  0
TABLE
  2
APPID
  5
8
100
AcDbSymbolTable
 70
     1
  0
APPID
  5
16
100
AcDbSymbolTableRecord
100
AcDbRegAppTableRecord
  2
ACAD
 70
     0
  0
ENDTAB
  0
TABLE
  2
DIMSTYLE
  5
9
100
AcDbSymbolTable
 70
     1
  0
DIMSTYLE
105
18
100
AcDbSymbolTableRecord
100
AcDbDimStyleTableRecord
  2
STANDARD
 70
     0
  3

  4

  5

  6

  7

 40
1.0
 41
0.18
 42
0.0625
 43
0.38
 44
0.18
 45
0.0
 46
0.0
 47
0.0
 48
0.0
 71
     0
 72
     0
 73
     1
 74
     1
 75
     0
 76
     0
 77
     0
 78
     0
140
0.18
141
0.09
142
0.0
143
25.4
144
1.0
145
0.0
146
1.0
147
0.09
170
     0
171
     2
172
     0
173
     0
174
     0
175
     0
176
     0
177
     0
178
     0
270
     2
271
     4
272
     4
273
     2
274
     2
275
     0
280
     0
281
     0
282
     0
283
     1
284
     0
285
     0
286
     0
287
     0
288
     0
340
17
  0
ENDTAB
  0
TABLE
  2
BLOCK_RECORD
  5
1
100
AcDbSymbolTable
 70
     0
  0
BLOCK_RECORD
  5
A
100
AcDbSymbolTableRecord
100
AcDbBlockTableRecord
  2
*MODEL_SPACE
  0
BLOCK_RECORD
  5
B
100
AcDbSymbolTableRecord
100
AcDbBlockTableRecord
  2
*PAPER_SPACE
  0
ENDTAB
  0
ENDSEC
  0
SECTION
  2
BLOCKS
  0
BLOCK
  5
D
100
AcDbEntity
  8
0
100
AcDbBlockBegin
  2
*MODEL_SPACE
 70
     0
 10
0.0
 20
0.0
 30
0.0
  3
*MODEL_SPACE
  1

  0
ENDBLK
  5
E
100
AcDbEntity
  8
0
100
AcDbBlockEnd
  0
BLOCK
  5
F
100
AcDbEntity
 67
     1
  8
0
100
AcDbBlockBegin
  2
*PAPER_SPACE
 70
     0
 10
0.0
 20
0.0
 30
0.0
  3
*PAPER_SPACE
  1

  0
ENDBLK
  5
10
100
AcDbEntity
 67
     1
  8
0
100
AcDbBlockEnd
  0
ENDSEC
  0
SECTION
  2
ENTITIES
  0
SPLINE
  5
25
100
AcDbEntity
  8
EBENE_1
 62
   252
100
AcDbSpline
210
0.0
220
0.0
230
1.0
 70
     1
 71
     3
 72
    20
 73
    16
 74
     0
 42
0.0000000001
 43
0.0000000001
 40
0.0
 40
0.0
 40
0.0
 40
0.0
 40
0.25
 40
0.25
 40
0.25
 40
0.25
 40
0.5
 40
0.5
 40
0.5
 40
0.5
 40
0.75
 40
0.75
 40
0.75
 40
0.75
 40
1.0
 40
1.0
 40
1.0
 40
1.0
 10
315.5
 20
0.1375
 30
0.0
 10
315.5
 20
57.505000000000003
 30
0.0
 10
300.04079999999999
 20
111.37430000000001
 30
0.0
 10
273.08760000000001
 20
157.8107
 30
0.0
 10
273.08760000000001
 20
157.8107
 30
0.0
 10
273.08760000000001
 20
157.8107
 30
0.0
 10
215.79990000000001
 20
124.6662
 30
0.0
 10
215.79990000000001
 20
124.6662
 30
0.0
 10
215.79990000000001
 20
124.6662
 30
0.0
 10
237.37110000000001
 20
87.502300000000005
 30
0.0
 10
249.23410000000001
 20
46.049700000000001
 30
0.0
 10
249.23410000000001
 20
0.1375
 30
0.0
 10
249.23410000000001
 20
0.1375
 30
0.0
 10
249.23410000000001
 20
0.1375
 30
0.0
 10
315.5
 20
0.1375
 30
0.0
 10
315.5
 20
0.1375
 30
0.0
  0
SPLINE
  5
26
100
AcDbEntity
  8
EBENE_1
 62
   253
100
AcDbSpline
210
0.0
220
0.0
230
1.0
 70
     1
 71
     3
 72
    20
 73
    16
 74
     0
 42
0.0000000001
 43
0.0000000001
 40
0.0
 40
0.0
 40
0.0
 40
0.0
 40
0.25
 40
0.25
 40
0.25
 40
0.25
 40
0.5
 40
0.5
 40
0.5
 40
0.5
 40
0.75
 40
0.75
 40
0.75
 40
0.75
 40
1.0
 40
1.0
 40
1.0
 40
1.0
 10
304.45229999999998
 20
0.1375
 30
0.0
 10
304.45229999999998
 20
57.505000000000003
 30
0.0
 10
290.29730000000001
 20
105.727
 30
0.0
 10
263.34410000000003
 20
152.1634
 30
0.0
 10
263.34410000000003
 20
152.1634
 30
0.0
 10
263.34410000000003
 20
152.1634
 30
0.0
 10
226.53540000000001
 20
130.80520000000001
 30
0.0
 10
226.53540000000001
 20
130.80520000000001
 30
0.0
 10
226.53540000000001
 20
130.80520000000001
 30
0.0
 10
248.10659999999999
 20
93.641300000000001
 30
0.0
 10
260.94459999999998
 20
46.049700000000001
 30
0.0
 10
260.94459999999998
 20
0.1375
 30
0.0
 10
260.94459999999998
 20
0.1375
 30
0.0
 10
260.94459999999998
 20
0.1375
 30
0.0
 10
304.45229999999998
 20
0.1375
 30
0.0
 10
304.45229999999998
 20
0.1375
 30
0.0
  0
SPLINE
  5
27
100
AcDbEntity
  8
EBENE_1
100
AcDbSpline
210
0.0
220
0.0
230
1.0
 70
     1
 71
     3
 72
    20
 73
    16
 74
     0
 42
0.0000000001
 43
0.0000000001
 40
0.0
 40
0.0
 40
0.0
 40
0.0
 40
0.25
 40
0.25
 40
0.25
 40
0.25
 40
0.5
 40
0.5
 40
0.5
 40
0.5
 40
0.75
 40
0.75
 40
0.75
 40
0.75
 40
1.0
 40
1.0
 40
1.0
 40
1.0
 10
264.45510000000002
 20
16.866199999999999
 30
0.0
 10
264.45510000000002
 20
16.866199999999999
 30
0.0
 10
299.42309999999998
 20
18.5502
 30
0.0
 10
299.42309999999998
 20
18.5502
 30
0.0
 10
299.42309999999998
 20
18.5502
 30
0.0
 10
299.42309999999998
 20
18.5502
 30
0.0
 10
299.80810000000002
 20
10.5595
 30
0.0
 10
299.80810000000002
 20
10.5595
 30
0.0
 10
299.80810000000002
 20
10.5595
 30
0.0
 10
299.80810000000002
 20
10.5595
 30
0.0
 10
264.84019999999998
 20
8.8754000000000008
 30
0.0
 10
264.84019999999998
 20
8.8754000000000008
 30
0.0
 10
264.84019999999998
 20
8.8754000000000008
 30
0.0
 10
264.84019999999998
 20
8.8754000000000008
 30
0.0
 10
264.45510000000002
 20
16.866199999999999
 30
0.0
 10
264.45510000000002
 20
16.866199999999999
 30
0.0
  0
SPLINE
  5
28
100
AcDbEntity
  8
EBENE_1
100
AcDbSpline
210
0.0
220
0.0
230
1.0
 70
     1
 71
     3
 72
    20
 73
    16
 74
     0
 42
0.0000000001
 43
0.0000000001
 40
0.0
 40
0.0
 40
0.0
 40
0.0
 40
0.25
 40
0.25
 40
0.25
 40
0.25
 40
0.5
 40
0.5
 40
0.5
 40
0.5
 40
0.75
 40
0.75
 40
0.75
 40
0.75
 40
1.0
 40
1.0
 40
1.0
 40
1.0
 10
233.89439999999999
 20
124.65089999999999
 30
0.0
 10
233.89439999999999
 20
124.65089999999999
 30
0.0
 10
265.04140000000001
 20
140.6302
 30
0.0
 10
265.04140000000001
 20
140.6302
 30
0.0
 10
265.04140000000001
 20
140.6302
 30
0.0
 10
265.04140000000001
 20
140.6302
 30
0.0
 10
268.69470000000001
 20
133.51259999999999
 30
0.0
 10
268.69470000000001
 20
133.51259999999999
 30
0.0
 10
268.69470000000001
 20
133.51259999999999
 30
0.0
 10
268.69470000000001
 20
133.51259999999999
 30
0.0
 10
237.54769999999999
 20
117.5333
 30
0.0
 10
237.54769999999999
 20
117.5333
 30
0.0
 10
237.54769999999999
 20
117.5333
 30
0.0
 10
237.54769999999999
 20
117.5333
 30
0.0
 10
233.89439999999999
 20
124.65089999999999
 30
0.0
 10
233.89439999999999
 20
124.65089999999999
 30
0.0
  0
SPLINE
  5
29
100
AcDbEntity
  8
EBENE_1
100
AcDbSpline
210
0.0
220
0.0
230
1.0
 70
     1
 71
     3
 72
    20
 73
    16
 74
     0
 42
0.0000000001
 43
0.0000000001
 40
0.0
 40
0.0
 40
0.0
 40
0.0
 40
0.25
 40
0.25
 40
0.25
 40
0.25
 40
0.5
 40
0.5
 40
0.5
 40
0.5
 40
0.75
 40
0.75
 40
0.75
 40
0.75
 40
1.0
 40
1.0
 40
1.0
 40
1.0
 10
259.34899999999999
 20
54.476700000000001
 30
0.0
 10
259.34899999999999
 20
54.476700000000001
 30
0.0
 10
293.7176
 20
61.137900000000002
 30
0.0
 10
293.7176
 20
61.137900000000002
 30
0.0
 10
293.7176
 20
61.137900000000002
 30
0.0
 10
293.7176
 20
61.137900000000002
 30
0.0
 10
295.24059999999997
 20
53.284100000000002
 30
0.0
 10
295.24059999999997
 20
53.284100000000002
 30
0.0
 10
295.24059999999997
 20
53.284100000000002
 30
0.0
 10
295.24059999999997
 20
53.284100000000002
 30
0.0
 10
260.87189999999998
 20
46.622900000000001
 30
0.0
 10
260.87189999999998
 20
46.622900000000001
 30
0.0
 10
260.87189999999998
 20
46.622900000000001
 30
0.0
 10
260.87189999999998
 20
46.622900000000001
 30
0.0
 10
259.34899999999999
 20
54.476700000000001
 30
0.0
 10
259.34899999999999
 20
54.476700000000001
 30
0.0
  0
SPLINE
  5
2A
100
AcDbEntity
  8
EBENE_1
100
AcDbSpline
210
0.0
220
0.0
230
1.0
 70
     1
 71
     3
 72
    20
 73
    16
 74
     0
 42
0.0000000001
 43
0.0000000001
 40
0.0
 40
0.0
 40
0.0
 40
0.0
 40
0.25
 40
0.25
 40
0.25
 40
0.25
 40
0.5
 40
0.5
 40
0.5
 40
0.5
 40
0.75
 40
0.75
 40
0.75
 40
0.75
 40
1.0
 40
1.0
 40
1.0
 40
1.0
 10
248.9538
 20
90.881699999999995
 30
0.0
 10
248.9538
 20
90.881699999999995
 30
0.0
 10
282.0222
 20
102.37130000000001
 30
0.0
 10
282.0222
 20
102.37130000000001
 30
0.0
 10
282.0222
 20
102.37130000000001
 30
0.0
 10
282.0222
 20
102.37130000000001
 30
0.0
 10
284.64909999999998
 20
94.814700000000002
 30
0.0
 10
284.64909999999998
 20
94.814700000000002
 30
0.0
 10
284.64909999999998
 20
94.814700000000002
 30
0.0
 10
284.64909999999998
 20
94.814700000000002
 30
0.0
 10
251.5806
 20
83.325100000000006
 30
0.0
 10
251.5806
 20
83.325100000000006
 30
0.0
 10
251.5806
 20
83.325100000000006
 30
0.0
 10
251.5806
 20
83.325100000000006
 30
0.0
 10
248.9538
 20
90.881699999999995
 30
0.0
 10
248.9538
 20
90.881699999999995
 30
0.0
  0
SPLINE
  5
2B
100
AcDbEntity
  8
EBENE_1
 62
   251
100
AcDbSpline
210
0.0
220
0.0
230
1.0
 70
     1
 71
     3
 72
    20
 73
    16
 74
     0
 42
0.0000000001
 43
0.0000000001
 40
0.0
 40
0.0
 40
0.0
 40
0.0
 40
0.25
 40
0.25
 40
0.25
 40
0.25
 40
0.5
 40
0.5
 40
0.5
 40
0.5
 40
0.75
 40
0.75
 40
0.75
 40
0.75
 40
1.0
 40
1.0
 40
1.0
 40
1.0
 10
277.24130000000002
 20
0.1216
 30
0.0
 10
277.24130000000002
 20
50.533999999999999
 30
0.0
 10
263.65629999999999
 20
97.872399999999999
 30
0.0
 10
239.9708
 20
138.67910000000001
 30
0.0
 10
239.9708
 20
138.67910000000001
 30
0.0
 10
239.9708
 20
138.67910000000001
 30
0.0
 10
233.04409999999999
 20
134.68090000000001
 30
0.0
 10
233.04409999999999
 20
134.68090000000001
 30
0.0
 10
233.04409999999999
 20
134.68090000000001
 30
0.0
 10
256.04610000000002
 20
95.051699999999997
 30
0.0
 10
269.23930000000001
 20
49.0794
 30
0.0
 10
269.23930000000001
 20
0.1216
 30
0.0
 10
269.23930000000001
 20
0.1216
 30
0.0
 10
269.23930000000001
 20
0.1216
 30
0.0
 10
277.24130000000002
 20
0.1216
 30
0.0
 10
277.24130000000002
 20
0.1216
 30
0.0
  0
SPLINE
  5
2C
100
AcDbEntity
  8
EBENE_1
100
AcDbSpline
210
0.0
220
0.0
230
1.0
 70
     1
 71
     3
 72
    20
 73
    16
 74
     0
 42
0.0000000001
 43
0.0000000001
 40
0.0
 40
0.0
 40
0.0
 40
0.0
 40
0.25
 40
0.25
 40
0.25
 40
0.25
 40
0.5
 40
0.5
 40
0.5
 40
0.5
 40
0.75
 40
0.75
 40
0.75
 40
0.75
 40
1.0
 40
1.0
 40
1.0
 40
1.0
 10
274.2405
 20
0.1216
 30
0.0
 10
274.2405
 20
49.988500000000002
 30
0.0
 10
260.80239999999998
 20
96.814700000000002
 30
0.0
 10
237.3733
 20
137.1798
 30
0.0
 10
237.3733
 20
137.1798
 30
0.0
 10
237.3733
 20
137.1798
 30
0.0
 10
235.64160000000001
 20
136.18029999999999
 30
0.0
 10
235.64160000000001
 20
136.18029999999999
 30
0.0
 10
235.64160000000001
 20
136.18029999999999
 30
0.0
 10
258.89999999999998
 20
96.1096
 30
0.0
 10
272.24009999999998
 20
49.624899999999997
 30
0.0
 10
272.24009999999998
 20
0.1216
 30
0.0
 10
272.24009999999998
 20
0.1216
 30
0.0
 10
272.24009999999998
 20
0.1216
 30
0.0
 10
274.2405
 20
0.1216
 30
0.0
 10
274.2405
 20
0.1216
 30
0.0
  0
SPLINE
  5
2D
100
AcDbEntity
  8
EBENE_1
 62
   251
100
AcDbSpline
210
0.0
220
0.0
230
1.0
 70
     1
 71
     3
 72
    20
 73
    16
 74
     0
 42
0.0000000001
 43
0.0000000001
 40
0.0
 40
0.0
 40
0.0
 40
0.0
 40
0.25
 40
0.25
 40
0.25
 40
0.25
 40
0.5
 40
0.5
 40
0.5
 40
0.5
 40
0.75
 40
0.75
 40
0.75
 40
0.75
 40
1.0
 40
1.0
 40
1.0
 40
1.0
 10
295.74579999999997
 20
0.1216
 30
0.0
 10
295.74579999999997
 20
53.8979
 30
0.0
 10
281.25420000000003
 20
104.3951
 30
0.0
 10
255.98830000000001
 20
147.9246
 30
0.0
 10
255.98830000000001
 20
147.9246
 30
0.0
 10
255.98830000000001
 20
147.9246
 30
0.0
 10
249.0617
 20
143.9265
 30
0.0
 10
249.0617
 20
143.9265
 30
0.0
 10
249.0617
 20
143.9265
 30
0.0
 10
273.64420000000001
 20
101.5744
 30
0.0
 10
287.74380000000002
 20
52.443300000000001
 30
0.0
 10
287.74380000000002
 20
0.1216
 30
0.0
 10
287.74380000000002
 20
0.1216
 30
0.0
 10
287.74380000000002
 20
0.1216
 30
0.0
 10
295.74579999999997
 20
0.1216
 30
0.0
 10
295.74579999999997
 20
0.1216
 30
0.0
  0
SPLINE
  5
2E
100
AcDbEntity
  8
EBENE_1
100
AcDbSpline
210
0.0
220
0.0
230
1.0
 70
     1
 71
     3
 72
    20
 73
    16
 74
     0
 42
0.0000000001
 43
0.0000000001
 40
0.0
 40
0.0
 40
0.0
 40
0.0
 40
0.25
 40
0.25
 40
0.25
 40
0.25
 40
0.5
 40
0.5
 40
0.5
 40
0.5
 40
0.75
 40
0.75
 40
0.75
 40
0.75
 40
1.0
 40
1.0
 40
1.0
 40
1.0
 10
290.74459999999999
 20
0.1216
 30
0.0
 10
290.74459999999999
 20
52.988799999999998
 30
0.0
 10
276.49810000000002
 20
102.63209999999999
 30
0.0
 10
251.6592
 20
145.42580000000001
 30
0.0
 10
251.6592
 20
145.42580000000001
 30
0.0
 10
251.6592
 20
145.42580000000001
 30
0.0
 10
253.39089999999999
 20
146.42529999999999
 30
0.0
 10
253.39089999999999
 20
146.42529999999999
 30
0.0
 10
253.39089999999999
 20
146.42529999999999
 30
0.0
 10
278.4006
 20
103.3372
 30
0.0
 10
292.745
 20
53.352400000000003
 30
0.0
 10
292.745
 20
0.1216
 30
0.0
 10
292.745
 20
0.1216
 30
0.0
 10
292.745
 20
0.1216
 30
0.0
 10
290.74459999999999
 20
0.1216
 30
0.0
 10
290.74459999999999
 20
0.1216
 30
0.0
  0
SPLINE
  5
2F
100
AcDbEntity
  8
EBENE_1
100
AcDbSpline
210
0.0
220
0.0
230
1.0
 70
     0
 71
     3
 72
     8
 73
     4
 74
     0
 42
0.0000000001
 43
0.0000000001
 40
0.0
 40
0.0
 40
0.0
 40
0.0
 40
1.0
 40
1.0
 40
1.0
 40
1.0
 10
282.49189999999999
 20
0.1375
 30
0.0
 10
282.49189999999999
 20
51.504600000000003
 30
0.0
 10
268.6497
 20
99.7393
 30
0.0
 10
244.51570000000001
 20
141.31870000000001
 30
0.0
  0
SPLINE
  5
30
100
AcDbEntity
  8
EBENE_1
 62
   252
100
AcDbSpline
210
0.0
220
0.0
230
1.0
 70
     1
 71
     3
 72
    20
 73
    16
 74
     0
 42
0.0000000001
 43
0.0000000001
 40
0.0
 40
0.0
 40
0.0
 40
0.0
 40
0.25
 40
0.25
 40
0.25
 40
0.25
 40
0.5
 40
0.5
 40
0.5
 40
0.5
 40
0.75
 40
0.75
 40
0.75
 40
0.75
 40
1.0
 40
1.0
 40
1.0
 40
1.0
 10
273.2208
 20
157.88749999999999
 30
0.0
 10
244.53
 20
207.5692
 30
0.0
 10
204.20079999999999
 20
246.49369999999999
 30
0.0
 10
157.63480000000001
 20
273.23540000000003
 30
0.0
 10
157.63480000000001
 20
273.23540000000003
 30
0.0
 10
157.63480000000001
 20
273.23540000000003
 30
0.0
 10
124.5984
 20
215.8946
 30
0.0
 10
124.5984
 20
215.8946
 30
0.0
 10
124.5984
 20
215.8946
 30
0.0
 10
161.86609999999999
 20
194.49270000000001
 30
0.0
 10
192.87110000000001
 20
164.52369999999999
 30
0.0
 10
215.83279999999999
 20
124.76260000000001
 30
0.0
 10
215.83279999999999
 20
124.76260000000001
 30
0.0
 10
215.83279999999999
 20
124.76260000000001
 30
0.0
 10
273.2208
 20
157.88749999999999
 30
0.0
 10
273.2208
 20
157.88749999999999
 30
0.0
  0
SPLINE
  5
31
100
AcDbEntity
  8
EBENE_1
 62
   253
100
AcDbSpline
210
0.0
220
0.0
230
1.0
 70
     1
 71
     3
 72
    20
 73
    16
 74
     0
 42
0.0000000001
 43
0.0000000001
 40
0.0
 40
0.0
 40
0.0
 40
0.0
 40
0.25
 40
0.25
 40
0.25
 40
0.25
 40
0.5
 40
0.5
 40
0.5
 40
0.5
 40
0.75
 40
0.75
 40
0.75
 40
0.75
 40
1.0
 40
1.0
 40
1.0
 40
1.0
 10
263.65320000000003
 20
152.36500000000001
 30
0.0
 10
234.96250000000001
 20
202.04669999999999
 30
0.0
 10
198.58699999999999
 20
236.73240000000001
 30
0.0
 10
152.02099999999999
 20
263.4742
 30
0.0
 10
152.02099999999999
 20
263.4742
 30
0.0
 10
152.02099999999999
 20
263.4742
 30
0.0
 10
130.8254
 20
226.57759999999999
 30
0.0
 10
130.8254
 20
226.57759999999999
 30
0.0
 10
130.8254
 20
226.57759999999999
 30
0.0
 10
168.09309999999999
 20
205.1756
 30
0.0
 10
203.0127
 20
170.3775
 30
0.0
 10
225.9744
 20
130.6164
 30
0.0
 10
225.9744
 20
130.6164
 30
0.0
 10
225.9744
 20
130.6164
 30
0.0
 10
263.65320000000003
 20
152.36500000000001
 30
0.0
 10
263.65320000000003
 20
152.36500000000001
 30
0.0
  0
SPLINE
  5
32
100
AcDbEntity
  8
EBENE_1
100
AcDbSpline
210
0.0
220
0.0
230
1.0
 70
     1
 71
     3
 72
    20
 73
    16
 74
     0
 42
0.0000000001
 43
0.0000000001
 40
0.0
 40
0.0
 40
0.0
 40
0.0
 40
0.25
 40
0.25
 40
0.25
 40
0.25
 40
0.5
 40
0.5
 40
0.5
 40
0.5
 40
0.75
 40
0.75
 40
0.75
 40
0.75
 40
1.0
 40
1.0
 40
1.0
 40
1.0
 10
220.6482
 20
146.8587
 30
0.0
 10
220.6482
 20
146.8587
 30
0.0
 10
250.08920000000001
 20
165.79689999999999
 30
0.0
 10
250.08920000000001
 20
165.79689999999999
 30
0.0
 10
250.08920000000001
 20
165.79689999999999
 30
0.0
 10
250.08920000000001
 20
165.79689999999999
 30
0.0
 10
254.41890000000001
 20
159.06909999999999
 30
0.0
 10
254.41890000000001
 20
159.06909999999999
 30
0.0
 10
254.41890000000001
 20
159.06909999999999
 30
0.0
 10
254.41890000000001
 20
159.06909999999999
 30
0.0
 10
224.97810000000001
 20
140.131
 30
0.0
 10
224.97810000000001
 20
140.131
 30
0.0
 10
224.97810000000001
 20
140.131
 30
0.0
 10
224.97810000000001
 20
140.131
 30
0.0
 10
220.6482
 20
146.8587
 30
0.0
 10
220.6482
 20
146.8587
 30
0.0
  0
SPLINE
  5
33
100
AcDbEntity
  8
EBENE_1
100
AcDbSpline
210
0.0
220
0.0
230
1.0
 70
     1
 71
     3
 72
    20
 73
    16
 74
     0
 42
0.0000000001
 43
0.0000000001
 40
0.0
 40
0.0
 40
0.0
 40
0.0
 40
0.25
 40
0.25
 40
0.25
 40
0.25
 40
0.5
 40
0.5
 40
0.5
 40
0.5
 40
0.75
 40
0.75
 40
0.75
 40
0.75
 40
1.0
 40
1.0
 40
1.0
 40
1.0
 10
140.2764
 20
224.9264
 30
0.0
 10
140.2764
 20
224.9264
 30
0.0
 10
159.25899999999999
 20
254.33449999999999
 30
0.0
 10
159.25899999999999
 20
254.33449999999999
 30
0.0
 10
159.25899999999999
 20
254.33449999999999
 30
0.0
 10
159.25899999999999
 20
254.33449999999999
 30
0.0
 10
165.98240000000001
 20
249.9967
 30
0.0
 10
165.98240000000001
 20
249.9967
 30
0.0
 10
165.98240000000001
 20
249.9967
 30
0.0
 10
165.98240000000001
 20
249.9967
 30
0.0
 10
147.0
 20
220.58860000000001
 30
0.0
 10
147.0
 20
220.58860000000001
 30
0.0
 10
147.0
 20
220.58860000000001
 30
0.0
 10
147.0
 20
220.58860000000001
 30
0.0
 10
140.2764
 20
224.9264
 30
0.0
 10
140.2764
 20
224.9264
 30
0.0
  0
SPLINE
  5
34
100
AcDbEntity
  8
EBENE_1
100
AcDbSpline
210
0.0
220
0.0
230
1.0
 70
     1
 71
     3
 72
    20
 73
    16
 74
     0
 42
0.0000000001
 43
0.0000000001
 40
0.0
 40
0.0
 40
0.0
 40
0.0
 40
0.25
 40
0.25
 40
0.25
 40
0.25
 40
0.5
 40
0.5
 40
0.5
 40
0.5
 40
0.75
 40
0.75
 40
0.75
 40
0.75
 40
1.0
 40
1.0
 40
1.0
 40
1.0
 10
197.41630000000001
 20
176.87790000000001
 30
0.0
 10
197.41630000000001
 20
176.87790000000001
 30
0.0
 10
223.84909999999999
 20
199.82679999999999
 30
0.0
 10
223.84909999999999
 20
199.82679999999999
 30
0.0
 10
223.84909999999999
 20
199.82679999999999
 30
0.0
 10
223.84909999999999
 20
199.82679999999999
 30
0.0
 10
229.0958
 20
193.78649999999999
 30
0.0
 10
229.0958
 20
193.78649999999999
 30
0.0
 10
229.0958
 20
193.78649999999999
 30
0.0
 10
229.0958
 20
193.78649999999999
 30
0.0
 10
202.66309999999999
 20
170.83760000000001
 30
0.0
 10
202.66309999999999
 20
170.83760000000001
 30
0.0
 10
202.66309999999999
 20
170.83760000000001
 30
0.0
 10
202.66309999999999
 20
170.83760000000001
 30
0.0
 10
197.41630000000001
 20
176.87790000000001
 30
0.0
 10
197.41630000000001
 20
176.87790000000001
 30
0.0
  0
SPLINE
  5
35
100
AcDbEntity
  8
EBENE_1
100
AcDbSpline
210
0.0
220
0.0
230
1.0
 70
     1
 71
     3
 72
    20
 73
    16
 74
     0
 42
0.0000000001
 43
0.0000000001
 40
0.0
 40
0.0
 40
0.0
 40
0.0
 40
0.25
 40
0.25
 40
0.25
 40
0.25
 40
0.5
 40
0.5
 40
0.5
 40
0.5
 40
0.75
 40
0.75
 40
0.75
 40
0.75
 40
1.0
 40
1.0
 40
1.0
 40
1.0
 10
170.20689999999999
 20
203.20930000000001
 30
0.0
 10
170.20689999999999
 20
203.20930000000001
 30
0.0
 10
193.09880000000001
 20
229.68979999999999
 30
0.0
 10
193.09880000000001
 20
229.68979999999999
 30
0.0
 10
193.09880000000001
 20
229.68979999999999
 30
0.0
 10
193.09880000000001
 20
229.68979999999999
 30
0.0
 10
199.15299999999999
 20
224.45859999999999
 30
0.0
 10
199.15299999999999
 20
224.45859999999999
 30
0.0
 10
199.15299999999999
 20
224.45859999999999
 30
0.0
 10
199.15299999999999
 20
224.45859999999999
 30
0.0
 10
176.2611
 20
197.97810000000001
 30
0.0
 10
176.2611
 20
197.97810000000001
 30
0.0
 10
176.2611
 20
197.97810000000001
 30
0.0
 10
176.2611
 20
197.97810000000001
 30
0.0
 10
170.20689999999999
 20
203.20930000000001
 30
0.0
 10
170.20689999999999
 20
203.20930000000001
 30
0.0
  0
SPLINE
  5
36
100
AcDbEntity
  8
EBENE_1
 62
   251
100
AcDbSpline
210
0.0
220
0.0
230
1.0
 70
     1
 71
     3
 72
    20
 73
    16
 74
     0
 42
0.0000000001
 43
0.0000000001
 40
0.0
 40
0.0
 40
0.0
 40
0.0
 40
0.25
 40
0.25
 40
0.25
 40
0.25
 40
0.5
 40
0.5
 40
0.5
 40
0.5
 40
0.75
 40
0.75
 40
0.75
 40
0.75
 40
1.0
 40
1.0
 40
1.0
 40
1.0
 10
240.09569999999999
 20
138.749
 30
0.0
 10
214.88339999999999
 20
182.4074
 30
0.0
 10
179.4435
 20
216.61279999999999
 30
0.0
 10
138.52289999999999
 20
240.11259999999999
 30
0.0
 10
138.52289999999999
 20
240.11259999999999
 30
0.0
 10
138.52289999999999
 20
240.11259999999999
 30
0.0
 10
134.52379999999999
 20
233.1876
 30
0.0
 10
134.52379999999999
 20
233.1876
 30
0.0
 10
134.52379999999999
 20
233.1876
 30
0.0
 10
174.26349999999999
 20
210.36590000000001
 30
0.0
 10
208.68100000000001
 20
177.14769999999999
 30
0.0
 10
233.16579999999999
 20
134.749
 30
0.0
 10
233.16579999999999
 20
134.749
 30
0.0
 10
233.16579999999999
 20
134.749
 30
0.0
 10
240.09569999999999
 20
138.749
 30
0.0
 10
240.09569999999999
 20
138.749
 30
0.0
  0
SPLINE
  5
37
100
AcDbEntity
  8
EBENE_1
100
AcDbSpline
210
0.0
220
0.0
230
1.0
 70
     1
 71
     3
 72
    20
 73
    16
 74
     0
 42
0.0000000001
 43
0.0000000001
 40
0.0
 40
0.0
 40
0.0
 40
0.0
 40
0.25
 40
0.25
 40
0.25
 40
0.25
 40
0.5
 40
0.5
 40
0.5
 40
0.5
 40
0.75
 40
0.75
 40
0.75
 40
0.75
 40
1.0
 40
1.0
 40
1.0
 40
1.0
 10
237.49700000000001
 20
137.249
 30
0.0
 10
212.5574
 20
180.435
 30
0.0
 10
177.5009
 20
214.27019999999999
 30
0.0
 10
137.0232
 20
237.51570000000001
 30
0.0
 10
137.0232
 20
237.51570000000001
 30
0.0
 10
137.0232
 20
237.51570000000001
 30
0.0
 10
136.02350000000001
 20
235.78450000000001
 30
0.0
 10
136.02350000000001
 20
235.78450000000001
 30
0.0
 10
136.02350000000001
 20
235.78450000000001
 30
0.0
 10
176.20599999999999
 20
212.70859999999999
 30
0.0
 10
211.0069
 20
179.12010000000001
 30
0.0
 10
235.7645
 20
136.249
 30
0.0
 10
235.7645
 20
136.249
 30
0.0
 10
235.7645
 20
136.249
 30
0.0
 10
237.49700000000001
 20
137.249
 30
0.0
 10
237.49700000000001
 20
137.249
 30
0.0
  0
SPLINE
  5
38
100
AcDbEntity
  8
EBENE_1
 62
   251
100
AcDbSpline
210
0.0
220
0.0
230
1.0
 70
     1
 71
     3
 72
    20
 73
    16
 74
     0
 42
0.0000000001
 43
0.0000000001
 40
0.0
 40
0.0
 40
0.0
 40
0.0
 40
0.25
 40
0.25
 40
0.25
 40
0.25
 40
0.5
 40
0.5
 40
0.5
 40
0.5
 40
0.75
 40
0.75
 40
0.75
 40
0.75
 40
1.0
 40
1.0
 40
1.0
 40
1.0
 10
256.12099999999998
 20
147.999
 30
0.0
 10
229.22640000000001
 20
194.57060000000001
 30
0.0
 10
191.42160000000001
 20
231.05850000000001
 30
0.0
 10
147.7706
 20
256.12619999999998
 30
0.0
 10
147.7706
 20
256.12619999999998
 30
0.0
 10
147.7706
 20
256.12619999999998
 30
0.0
 10
143.7715
 20
249.2013
 30
0.0
 10
143.7715
 20
249.2013
 30
0.0
 10
143.7715
 20
249.2013
 30
0.0
 10
186.24180000000001
 20
224.8116
 30
0.0
 10
223.024
 20
189.3109
 30
0.0
 10
249.19110000000001
 20
143.999
 30
0.0
 10
249.19110000000001
 20
143.999
 30
0.0
 10
249.19110000000001
 20
143.999
 30
0.0
 10
256.12099999999998
 20
147.999
 30
0.0
 10
256.12099999999998
 20
147.999
 30
0.0
  0
SPLINE
  5
39
100
AcDbEntity
  8
EBENE_1
100
AcDbSpline
210
0.0
220
0.0
230
1.0
 70
     1
 71
     3
 72
    20
 73
    16
 74
     0
 42
0.0000000001
 43
0.0000000001
 40
0.0
 40
0.0
 40
0.0
 40
0.0
 40
0.25
 40
0.25
 40
0.25
 40
0.25
 40
0.5
 40
0.5
 40
0.5
 40
0.5
 40
0.75
 40
0.75
 40
0.75
 40
0.75
 40
1.0
 40
1.0
 40
1.0
 40
1.0
 10
251.78989999999999
 20
145.499
 30
0.0
 10
225.34979999999999
 20
191.2833
 30
0.0
 10
188.18440000000001
 20
227.1542
 30
0.0
 10
145.2713
 20
251.79820000000001
 30
0.0
 10
145.2713
 20
251.79820000000001
 30
0.0
 10
145.2713
 20
251.79820000000001
 30
0.0
 10
146.27099999999999
 20
253.52940000000001
 30
0.0
 10
146.27099999999999
 20
253.52940000000001
 30
0.0
 10
146.27099999999999
 20
253.52940000000001
 30
0.0
 10
189.47929999999999
 20
228.7158
 30
0.0
 10
226.90049999999999
 20
192.59819999999999
 30
0.0
 10
253.5224
 20
146.499
 30
0.0
 10
253.5224
 20
146.499
 30
0.0
 10
253.5224
 20
146.499
 30
0.0
 10
251.78989999999999
 20
145.499
 30
0.0
 10
251.78989999999999
 20
145.499
 30
0.0
  0
SPLINE
  5
3A
100
AcDbEntity
  8
EBENE_1
100
AcDbSpline
210
0.0
220
0.0
230
1.0
 70
     0
 71
     3
 72
     8
 73
     4
 74
     0
 42
0.0000000001
 43
0.0000000001
 40
0.0
 40
0.0
 40
0.0
 40
0.0
 40
1.0
 40
1.0
 40
1.0
 40
1.0
 10
244.63489999999999
 20
141.38749999999999
 30
0.0
 10
218.9452
 20
185.87270000000001
 30
0.0
 10
182.83420000000001
 20
220.72569999999999
 30
0.0
 10
141.1387
 20
244.6705
 30
0.0
  0
SPLINE
  5
3B
100
AcDbEntity
  8
EBENE_1
 62
   252
100
AcDbSpline
210
0.0
220
0.0
230
1.0
 70
     1
 71
     3
 72
    20
 73
    16
 74
     0
 42
0.0000000001
 43
0.0000000001
 40
0.0
 40
0.0
 40
0.0
 40
0.0
 40
0.25
 40
0.25
 40
0.25
 40
0.25
 40
0.5
 40
0.5
 40
0.5
 40
0.5
 40
0.75
 40
0.75
 40
0.75
 40
0.75
 40
1.0
 40
1.0
 40
1.0
 40
1.0
 10
157.7116
 20
273.36849999999998
 30
0.0
 10
108.01779999999999
 20
302.0523
 30
0.0
 10
53.624699999999997
 20
315.60219999999998
 30
0.0
 10
-0.0768
 20
315.48379999999997
 30
0.0
 10
-0.0768
 20
315.48379999999997
 30
0.0
 10
-0.0768
 20
315.48379999999997
 30
0.0
 10
-0.0097
 20
249.31110000000001
 30
0.0
 10
-0.0097
 20
249.31110000000001
 30
0.0
 10
-0.0097
 20
249.31110000000001
 30
0.0
 10
42.968600000000002
 20
249.4058
 30
0.0
 10
84.8078
 20
238.95060000000001
 30
0.0
 10
124.57859999999999
 20
215.99449999999999
 30
0.0
 10
124.57859999999999
 20
215.99449999999999
 30
0.0
 10
124.57859999999999
 20
215.99449999999999
 30
0.0
 10
157.7116
 20
273.36849999999998
 30
0.0
 10
157.7116
 20
273.36849999999998
 30
0.0
  0
SPLINE
  5
3C
100
AcDbEntity
  8
EBENE_1
 62
   253
100
AcDbSpline
210
0.0
220
0.0
230
1.0
 70
     1
 71
     3
 72
    20
 73
    16
 74
     0
 42
0.0000000001
 43
0.0000000001
 40
0.0
 40
0.0
 40
0.0
 40
0.0
 40
0.25
 40
0.25
 40
0.25
 40
0.25
 40
0.5
 40
0.5
 40
0.5
 40
0.5
 40
0.75
 40
0.75
 40
0.75
 40
0.75
 40
1.0
 40
1.0
 40
1.0
 40
1.0
 10
152.18770000000001
 20
263.80329999999998
 30
0.0
 10
102.4939
 20
292.48700000000002
 30
0.0
 10
53.6449
 20
304.34249999999997
 30
0.0
 10
-0.0567
 20
304.2242
 30
0.0
 10
-0.0567
 20
304.2242
 30
0.0
 10
-0.0567
 20
304.2242
 30
0.0
 10
0.0402
 20
261.67559999999997
 30
0.0
 10
0.0402
 20
261.67559999999997
 30
0.0
 10
0.0402
 20
261.67559999999997
 30
0.0
 10
43.018500000000003
 20
261.77019999999999
 30
0.0
 10
90.6631
 20
249.0898
 30
0.0
 10
130.43389999999999
 20
226.1337
 30
0.0
 10
130.43389999999999
 20
226.1337
 30
0.0
 10
130.43389999999999
 20
226.1337
 30
0.0
 10
152.18770000000001
 20
263.80329999999998
 30
0.0
 10
152.18770000000001
 20
263.80329999999998
 30
0.0
  0
SPLINE
  5
3D
100
AcDbEntity
  8
EBENE_1
100
AcDbSpline
210
0.0
220
0.0
230
1.0
 70
     1
 71
     3
 72
    20
 73
    16
 74
     0
 42
0.0000000001
 43
0.0000000001
 40
0.0
 40
0.0
 40
0.0
 40
0.0
 40
0.25
 40
0.25
 40
0.25
 40
0.25
 40
0.5
 40
0.5
 40
0.5
 40
0.5
 40
0.75
 40
0.75
 40
0.75
 40
0.75
 40
1.0
 40
1.0
 40
1.0
 40
1.0
 10
117.6981
 20
237.53749999999999
 30
0.0
 10
117.6981
 20
237.53749999999999
 30
0.0
 10
133.72329999999999
 20
268.65530000000001
 30
0.0
 10
133.72329999999999
 20
268.65530000000001
 30
0.0
 10
133.72329999999999
 20
268.65530000000001
 30
0.0
 10
133.72329999999999
 20
268.65530000000001
 30
0.0
 10
140.83779999999999
 20
264.99329999999998
 30
0.0
 10
140.83779999999999
 20
264.99329999999998
 30
0.0
 10
140.83779999999999
 20
264.99329999999998
 30
0.0
 10
140.83779999999999
 20
264.99329999999998
 30
0.0
 10
124.8126
 20
233.87540000000001
 30
0.0
 10
124.8126
 20
233.87540000000001
 30
0.0
 10
124.8126
 20
233.87540000000001
 30
0.0
 10
124.8126
 20
233.87540000000001
 30
0.0
 10
117.6981
 20
237.53749999999999
 30
0.0
 10
117.6981
 20
237.53749999999999
 30
0.0
  0
SPLINE
  5
3E
100
AcDbEntity
  8
EBENE_1
100
AcDbSpline
210
0.0
220
0.0
230
1.0
 70
     1
 71
     3
 72
    20
 73
    16
 74
     0
 42
0.0000000001
 43
0.0000000001
 40
0.0
 40
0.0
 40
0.0
 40
0.0
 40
0.25
 40
0.25
 40
0.25
 40
0.25
 40
0.5
 40
0.5
 40
0.5
 40
0.5
 40
0.75
 40
0.75
 40
0.75
 40
0.75
 40
1.0
 40
1.0
 40
1.0
 40
1.0
 10
9.0508000000000006
 20
264.9699
 30
0.0
 10
9.0508000000000006
 20
264.9699
 30
0.0
 10
10.782500000000001
 20
299.9271
 30
0.0
 10
10.782500000000001
 20
299.9271
 30
0.0
 10
10.782500000000001
 20
299.9271
 30
0.0
 10
10.782500000000001
 20
299.9271
 30
0.0
 10
18.774699999999999
 20
299.53140000000002
 30
0.0
 10
18.774699999999999
 20
299.53140000000002
 30
0.0
 10
18.774699999999999
 20
299.53140000000002
 30
0.0
 10
18.774699999999999
 20
299.53140000000002
 30
0.0
 10
17.042899999999999
 20
264.57420000000002
 30
0.0
 10
17.042899999999999
 20
264.57420000000002
 30
0.0
 10
17.042899999999999
 20
264.57420000000002
 30
0.0
 10
17.042899999999999
 20
264.57420000000002
 30
0.0
 10
9.0508000000000006
 20
264.9699
 30
0.0
 10
9.0508000000000006
 20
264.9699
 30
0.0
  0
SPLINE
  5
3F
100
AcDbEntity
  8
EBENE_1
100
AcDbSpline
210
0.0
220
0.0
230
1.0
 70
     1
 71
     3
 72
    20
 73
    16
 74
     0
 42
0.0000000001
 43
0.0000000001
 40
0.0
 40
0.0
 40
0.0
 40
0.0
 40
0.25
 40
0.25
 40
0.25
 40
0.25
 40
0.5
 40
0.5
 40
0.5
 40
0.5
 40
0.75
 40
0.75
 40
0.75
 40
0.75
 40
1.0
 40
1.0
 40
1.0
 40
1.0
 10
82.5655
 20
251.92179999999999
 30
0.0
 10
82.5655
 20
251.92179999999999
 30
0.0
 10
93.979699999999994
 20
285.00920000000002
 30
0.0
 10
93.979699999999994
 20
285.00920000000002
 30
0.0
 10
93.979699999999994
 20
285.00920000000002
 30
0.0
 10
93.979699999999994
 20
285.00920000000002
 30
0.0
 10
101.54430000000001
 20
282.40089999999998
 30
0.0
 10
101.54430000000001
 20
282.40089999999998
 30
0.0
 10
101.54430000000001
 20
282.40089999999998
 30
0.0
 10
101.54430000000001
 20
282.40089999999998
 30
0.0
 10
90.130200000000002
 20
249.3134
 30
0.0
 10
90.130200000000002
 20
249.3134
 30
0.0
 10
90.130200000000002
 20
249.3134
 30
0.0
 10
90.130200000000002
 20
249.3134
 30
0.0
 10
82.5655
 20
251.92179999999999
 30
0.0
 10
82.5655
 20
251.92179999999999
 30
0.0
  0
SPLINE
  5
40
100
AcDbEntity
  8
EBENE_1
100
AcDbSpline
210
0.0
220
0.0
230
1.0
 70
     1
 71
     3
 72
    20
 73
    16
 74
     0
 42
0.0000000001
 43
0.0000000001
 40
0.0
 40
0.0
 40
0.0
 40
0.0
 40
0.25
 40
0.25
 40
0.25
 40
0.25
 40
0.5
 40
0.5
 40
0.5
 40
0.5
 40
0.75
 40
0.75
 40
0.75
 40
0.75
 40
1.0
 40
1.0
 40
1.0
 40
1.0
 10
45.832599999999999
 20
261.12400000000002
 30
0.0
 10
45.832599999999999
 20
261.12400000000002
 30
0.0
 10
52.414099999999998
 20
295.49990000000003
 30
0.0
 10
52.414099999999998
 20
295.49990000000003
 30
0.0
 10
52.414099999999998
 20
295.49990000000003
 30
0.0
 10
52.414099999999998
 20
295.49990000000003
 30
0.0
 10
60.273299999999999
 20
293.99590000000001
 30
0.0
 10
60.273299999999999
 20
293.99590000000001
 30
0.0
 10
60.273299999999999
 20
293.99590000000001
 30
0.0
 10
60.273299999999999
 20
293.99590000000001
 30
0.0
 10
53.691899999999997
 20
259.62
 30
0.0
 10
53.691899999999997
 20
259.62
 30
0.0
 10
53.691899999999997
 20
259.62
 30
0.0
 10
53.691899999999997
 20
259.62
 30
0.0
 10
45.832599999999999
 20
261.12400000000002
 30
0.0
 10
45.832599999999999
 20
261.12400000000002
 30
0.0
  0
SPLINE
  5
41
100
AcDbEntity
  8
EBENE_1
 62
   251
100
AcDbSpline
210
0.0
220
0.0
230
1.0
 70
     1
 71
     3
 72
    20
 73
    16
 74
     0
 42
0.0000000001
 43
0.0000000001
 40
0.0
 40
0.0
 40
0.0
 40
0.0
 40
0.25
 40
0.25
 40
0.25
 40
0.25
 40
0.5
 40
0.5
 40
0.5
 40
0.5
 40
0.75
 40
0.75
 40
0.75
 40
0.75
 40
1.0
 40
1.0
 40
1.0
 40
1.0
 10
138.596
 20
240.23560000000001
 30
0.0
 10
94.927000000000007
 20
265.4418
 30
0.0
 10
47.128300000000003
 20
277.34890000000001
 30
0.0
 10
-0.0627
 20
277.24509999999998
 30
0.0
 10
-0.0627
 20
277.24509999999998
 30
0.0
 10
-0.0627
 20
277.24509999999998
 30
0.0
 10
-0.0627
 20
269.24869999999999
 30
0.0
 10
-0.0627
 20
269.24869999999999
 30
0.0
 10
-0.0627
 20
269.24869999999999
 30
0.0
 10
45.766500000000001
 20
269.34960000000001
 30
0.0
 10
92.186000000000007
 20
257.78629999999998
 30
0.0
 10
134.5951
 20
233.3074
 30
0.0
 10
134.5951
 20
233.3074
 30
0.0
 10
134.5951
 20
233.3074
 30
0.0
 10
138.596
 20
240.23560000000001
 30
0.0
 10
138.596
 20
240.23560000000001
 30
0.0
  0
SPLINE
  5
42
100
AcDbEntity
  8
EBENE_1
100
AcDbSpline
210
0.0
220
0.0
230
1.0
 70
     1
 71
     3
 72
    20
 73
    16
 74
     0
 42
0.0000000001
 43
0.0000000001
 40
0.0
 40
0.0
 40
0.0
 40
0.0
 40
0.25
 40
0.25
 40
0.25
 40
0.25
 40
0.5
 40
0.5
 40
0.5
 40
0.5
 40
0.75
 40
0.75
 40
0.75
 40
0.75
 40
1.0
 40
1.0
 40
1.0
 40
1.0
 10
137.09569999999999
 20
237.63759999999999
 30
0.0
 10
93.899199999999993
 20
262.57100000000003
 30
0.0
 10
46.617400000000004
 20
274.34910000000002
 30
0.0
 10
-0.0628
 20
274.24639999999999
 30
0.0
 10
-0.0628
 20
274.24639999999999
 30
0.0
 10
-0.0628
 20
274.24639999999999
 30
0.0
 10
-0.0628
 20
272.24740000000003
 30
0.0
 10
-0.0628
 20
272.24740000000003
 30
0.0
 10
-0.0628
 20
272.24740000000003
 30
0.0
 10
46.277099999999997
 20
272.34949999999998
 30
0.0
 10
93.213899999999995
 20
260.65719999999999
 30
0.0
 10
136.09540000000001
 20
235.90549999999999
 30
0.0
 10
136.09540000000001
 20
235.90549999999999
 30
0.0
 10
136.09540000000001
 20
235.90549999999999
 30
0.0
 10
137.09569999999999
 20
237.63759999999999
 30
0.0
 10
137.09569999999999
 20
237.63759999999999
 30
0.0
  0
SPLINE
  5
43
100
AcDbEntity
  8
EBENE_1
 62
   251
100
AcDbSpline
210
0.0
220
0.0
230
1.0
 70
     1
 71
     3
 72
    20
 73
    16
 74
     0
 42
0.0000000001
 43
0.0000000001
 40
0.0
 40
0.0
 40
0.0
 40
0.0
 40
0.25
 40
0.25
 40
0.25
 40
0.25
 40
0.5
 40
0.5
 40
0.5
 40
0.5
 40
0.75
 40
0.75
 40
0.75
 40
0.75
 40
1.0
 40
1.0
 40
1.0
 40
1.0
 10
147.84829999999999
 20
256.25709999999998
 30
0.0
 10
101.26519999999999
 20
283.14530000000002
 30
0.0
 10
50.277000000000001
 20
295.84690000000001
 30
0.0
 10
-0.0628
 20
295.73599999999999
 30
0.0
 10
-0.0628
 20
295.73599999999999
 30
0.0
 10
-0.0628
 20
295.73599999999999
 30
0.0
 10
-0.0628
 20
287.7398
 30
0.0
 10
-0.0628
 20
287.7398
 30
0.0
 10
-0.0628
 20
287.7398
 30
0.0
 10
48.915399999999998
 20
287.8476
 30
0.0
 10
98.5244
 20
275.4898
 30
0.0
 10
143.84729999999999
 20
249.3289
 30
0.0
 10
143.84729999999999
 20
249.3289
 30
0.0
 10
143.84729999999999
 20
249.3289
 30
0.0
 10
147.84829999999999
 20
256.25709999999998
 30
0.0
 10
147.84829999999999
 20
256.25709999999998
 30
0.0
  0
SPLINE
  5
44
100
AcDbEntity
  8
EBENE_1
100
AcDbSpline
210
0.0
220
0.0
230
1.0
 70
     1
 71
     3
 72
    20
 73
    16
 74
     0
 42
0.0000000001
 43
0.0000000001
 40
0.0
 40
0.0
 40
0.0
 40
0.0
 40
0.25
 40
0.25
 40
0.25
 40
0.25
 40
0.5
 40
0.5
 40
0.5
 40
0.5
 40
0.75
 40
0.75
 40
0.75
 40
0.75
 40
1.0
 40
1.0
 40
1.0
 40
1.0
 10
145.3477
 20
251.92699999999999
 30
0.0
 10
99.552099999999996
 20
278.36059999999998
 30
0.0
 10
49.426099999999998
 20
290.84739999999999
 30
0.0
 10
-0.0628
 20
290.73840000000001
 30
0.0
 10
-0.0628
 20
290.73840000000001
 30
0.0
 10
-0.0628
 20
290.73840000000001
 30
0.0
 10
-0.0627
 20
292.73750000000001
 30
0.0
 10
-0.0627
 20
292.73750000000001
 30
0.0
 10
-0.0627
 20
292.73750000000001
 30
0.0
 10
49.766500000000001
 20
292.84719999999999
 30
0.0
 10
100.2375
 20
280.27440000000001
 30
0.0
 10
146.34790000000001
 20
253.65899999999999
 30
0.0
 10
146.34790000000001
 20
253.65899999999999
 30
0.0
 10
146.34790000000001
 20
253.65899999999999
 30
0.0
 10
145.3477
 20
251.92699999999999
 30
0.0
 10
145.3477
 20
251.92699999999999
 30
0.0
  0
SPLINE
  5
45
100
AcDbEntity
  8
EBENE_1
100
AcDbSpline
210
0.0
220
0.0
230
1.0
 70
     0
 71
     3
 72
     8
 73
     4
 74
     0
 42
0.0000000001
 43
0.0000000001
 40
0.0
 40
0.0
 40
0.0
 40
0.0
 40
1.0
 40
1.0
 40
1.0
 40
1.0
 10
141.20760000000001
 20
244.78970000000001
 30
0.0
 10
96.711500000000001
 20
270.47320000000002
 30
0.0
 10
48.007800000000003
 20
282.60579999999999
 30
0.0
 10
-0.0768
 20
282.49990000000003
 30
0.0
  0
SPLINE
  5
46
100
AcDbEntity
  8
EBENE_1
 62
   252
100
AcDbSpline
210
0.0
220
0.0
230
1.0
 70
     1
 71
     3
 72
    20
 73
    16
 74
     0
 42
0.0000000001
 43
0.0000000001
 40
0.0
 40
0.0
 40
0.0
 40
0.0
 40
0.25
 40
0.25
 40
0.25
 40
0.25
 40
0.5
 40
0.5
 40
0.5
 40
0.5
 40
0.75
 40
0.75
 40
0.75
 40
0.75
 40
1.0
 40
1.0
 40
1.0
 40
1.0
 10
-0.0768
 20
315.49990000000003
 30
0.0
 10
-57.458300000000001
 20
315.49990000000003
 30
0.0
 10
-111.3407
 20
300.04450000000003
 30
0.0
 10
-157.7884
 20
273.09780000000001
 30
0.0
 10
-157.7884
 20
273.09780000000001
 30
0.0
 10
-157.7884
 20
273.09780000000001
 30
0.0
 10
-124.6358
 20
215.82409999999999
 30
0.0
 10
-124.6358
 20
215.82409999999999
 30
0.0
 10
-124.6358
 20
215.82409999999999
 30
0.0
 10
-87.462900000000005
 20
237.38999999999999
 30
0.0
 10
-46.0002
 20
249.2501
 30
0.0
 10
-0.0768
 20
249.2501
 30
0.0
 10
-0.0768
 20
249.2501
 30
0.0
 10
-0.0768
 20
249.2501
 30
0.0
 10
-0.0768
 20
315.49990000000003
 30
0.0
 10
-0.0768
 20
315.49990000000003
 30
0.0
  0
SPLINE
  5
47
100
AcDbEntity
  8
EBENE_1
 62
   253
100
AcDbSpline
210
0.0
220
0.0
230
1.0
 70
     1
 71
     3
 72
    20
 73
    16
 74
     0
 42
0.0000000001
 43
0.0000000001
 40
0.0
 40
0.0
 40
0.0
 40
0.0
 40
0.25
 40
0.25
 40
0.25
 40
0.25
 40
0.5
 40
0.5
 40
0.5
 40
0.5
 40
0.75
 40
0.75
 40
0.75
 40
0.75
 40
1.0
 40
1.0
 40
1.0
 40
1.0
 10
-0.0768
 20
304.45490000000001
 30
0.0
 10
-57.458300000000001
 20
304.45490000000001
 30
0.0
 10
-105.69199999999999
 20
290.30340000000001
 30
0.0
 10
-152.1397
 20
263.35669999999999
 30
0.0
 10
-152.1397
 20
263.35669999999999
 30
0.0
 10
-152.1397
 20
263.35669999999999
 30
0.0
 10
-130.77629999999999
 20
226.55699999999999
 30
0.0
 10
-130.77629999999999
 20
226.55699999999999
 30
0.0
 10
-130.77629999999999
 20
226.55699999999999
 30
0.0
 10
-93.603399999999993
 20
248.12289999999999
 30
0.0
 10
-46.0002
 20
260.95780000000002
 30
0.0
 10
-0.0768
 20
260.95780000000002
 30
0.0
 10
-0.0768
 20
260.95780000000002
 30
0.0
 10
-0.0768
 20
260.95780000000002
 30
0.0
 10
-0.0768
 20
304.45490000000001
 30
0.0
 10
-0.0768
 20
304.45490000000001
 30
0.0
  0
SPLINE
  5
48
100
AcDbEntity
  8
EBENE_1
100
AcDbSpline
210
0.0
220
0.0
230
1.0
 70
     1
 71
     3
 72
    20
 73
    16
 74
     0
 42
0.0000000001
 43
0.0000000001
 40
0.0
 40
0.0
 40
0.0
 40
0.0
 40
0.25
 40
0.25
 40
0.25
 40
0.25
 40
0.5
 40
0.5
 40
0.5
 40
0.5
 40
0.75
 40
0.75
 40
0.75
 40
0.75
 40
1.0
 40
1.0
 40
1.0
 40
1.0
 10
-16.8096
 20
264.4674
 30
0.0
 10
-16.8096
 20
264.4674
 30
0.0
 10
-18.494
 20
299.42689999999999
 30
0.0
 10
-18.494
 20
299.42689999999999
 30
0.0
 10
-18.494
 20
299.42689999999999
 30
0.0
 10
-18.494
 20
299.42689999999999
 30
0.0
 10
-10.5014
 20
299.81180000000001
 30
0.0
 10
-10.5014
 20
299.81180000000001
 30
0.0
 10
-10.5014
 20
299.81180000000001
 30
0.0
 10
-10.5014
 20
299.81180000000001
 30
0.0
 10
-8.8168000000000006
 20
264.85239999999999
 30
0.0
 10
-8.8168000000000006
 20
264.85239999999999
 30
0.0
 10
-8.8168000000000006
 20
264.85239999999999
 30
0.0
 10
-8.8168000000000006
 20
264.85239999999999
 30
0.0
 10
-16.8096
 20
264.4674
 30
0.0
 10
-16.8096
 20
264.4674
 30
0.0
  0
SPLINE
  5
49
100
AcDbEntity
  8
EBENE_1
100
AcDbSpline
210
0.0
220
0.0
230
1.0
 70
     1
 71
     3
 72
    20
 73
    16
 74
     0
 42
0.0000000001
 43
0.0000000001
 40
0.0
 40
0.0
 40
0.0
 40
0.0
 40
0.25
 40
0.25
 40
0.25
 40
0.25
 40
0.5
 40
0.5
 40
0.5
 40
0.5
 40
0.75
 40
0.75
 40
0.75
 40
0.75
 40
1.0
 40
1.0
 40
1.0
 40
1.0
 10
-124.62050000000001
 20
233.91419999999999
 30
0.0
 10
-124.62050000000001
 20
233.91419999999999
 30
0.0
 10
-140.6037
 20
265.05360000000002
 30
0.0
 10
-140.6037
 20
265.05360000000002
 30
0.0
 10
-140.6037
 20
265.05360000000002
 30
0.0
 10
-140.6037
 20
265.05360000000002
 30
0.0
 10
-133.48439999999999
 20
268.70600000000002
 30
0.0
 10
-133.48439999999999
 20
268.70600000000002
 30
0.0
 10
-133.48439999999999
 20
268.70600000000002
 30
0.0
 10
-133.48439999999999
 20
268.70600000000002
 30
0.0
 10
-117.5012
 20
237.56659999999999
 30
0.0
 10
-117.5012
 20
237.56659999999999
 30
0.0
 10
-117.5012
 20
237.56659999999999
 30
0.0
 10
-117.5012
 20
237.56659999999999
 30
0.0
 10
-124.62050000000001
 20
233.91419999999999
 30
0.0
 10
-124.62050000000001
 20
233.91419999999999
 30
0.0
  0
SPLINE
  5
4A
100
AcDbEntity
  8
EBENE_1
100
AcDbSpline
210
0.0
220
0.0
230
1.0
 70
     1
 71
     3
 72
    20
 73
    16
 74
     0
 42
0.0000000001
 43
0.0000000001
 40
0.0
 40
0.0
 40
0.0
 40
0.0
 40
0.25
 40
0.25
 40
0.25
 40
0.25
 40
0.5
 40
0.5
 40
0.5
 40
0.5
 40
0.75
 40
0.75
 40
0.75
 40
0.75
 40
1.0
 40
1.0
 40
1.0
 40
1.0
 10
-54.429200000000002
 20
259.36259999999999
 30
0.0
 10
-54.429200000000002
 20
259.36259999999999
 30
0.0
 10
-61.092100000000002
 20
293.72280000000001
 30
0.0
 10
-61.092100000000002
 20
293.72280000000001
 30
0.0
 10
-61.092100000000002
 20
293.72280000000001
 30
0.0
 10
-61.092100000000002
 20
293.72280000000001
 30
0.0
 10
-53.236400000000003
 20
295.24540000000002
 30
0.0
 10
-53.236400000000003
 20
295.24540000000002
 30
0.0
 10
-53.236400000000003
 20
295.24540000000002
 30
0.0
 10
-53.236400000000003
 20
295.24540000000002
 30
0.0
 10
-46.573500000000003
 20
260.88510000000002
 30
0.0
 10
-46.573500000000003
 20
260.88510000000002
 30
0.0
 10
-46.573500000000003
 20
260.88510000000002
 30
0.0
 10
-46.573500000000003
 20
260.88510000000002
 30
0.0
 10
-54.429200000000002
 20
259.36259999999999
 30
0.0
 10
-54.429200000000002
 20
259.36259999999999
 30
0.0
  0
SPLINE
  5
4B
100
AcDbEntity
  8
EBENE_1
100
AcDbSpline
210
0.0
220
0.0
230
1.0
 70
     1
 71
     3
 72
    20
 73
    16
 74
     0
 42
0.0000000001
 43
0.0000000001
 40
0.0
 40
0.0
 40
0.0
 40
0.0
 40
0.25
 40
0.25
 40
0.25
 40
0.25
 40
0.5
 40
0.5
 40
0.5
 40
0.5
 40
0.75
 40
0.75
 40
0.75
 40
0.75
 40
1.0
 40
1.0
 40
1.0
 40
1.0
 10
-90.843100000000007
 20
248.9699
 30
0.0
 10
-90.843100000000007
 20
248.9699
 30
0.0
 10
-102.3355
 20
282.03030000000001
 30
0.0
 10
-102.3355
 20
282.03030000000001
 30
0.0
 10
-102.3355
 20
282.03030000000001
 30
0.0
 10
-102.3355
 20
282.03030000000001
 30
0.0
 10
-94.777100000000004
 20
284.65649999999999
 30
0.0
 10
-94.777100000000004
 20
284.65649999999999
 30
0.0
 10
-94.777100000000004
 20
284.65649999999999
 30
0.0
 10
-94.777100000000004
 20
284.65649999999999
 30
0.0
 10
-83.284700000000001
 20
251.59610000000001
 30
0.0
 10
-83.284700000000001
 20
251.59610000000001
 30
0.0
 10
-83.284700000000001
 20
251.59610000000001
 30
0.0
 10
-83.284700000000001
 20
251.59610000000001
 30
0.0
 10
-90.843100000000007
 20
248.9699
 30
0.0
 10
-90.843100000000007
 20
248.9699
 30
0.0
  0
SPLINE
  5
4C
100
AcDbEntity
  8
EBENE_1
 62
   251
100
AcDbSpline
210
0.0
220
0.0
230
1.0
 70
     1
 71
     3
 72
    20
 73
    16
 74
     0
 42
0.0000000001
 43
0.0000000001
 40
0.0
 40
0.0
 40
0.0
 40
0.0
 40
0.25
 40
0.25
 40
0.25
 40
0.25
 40
0.5
 40
0.5
 40
0.5
 40
0.5
 40
0.75
 40
0.75
 40
0.75
 40
0.75
 40
1.0
 40
1.0
 40
1.0
 40
1.0
 10
-0.0609
 20
277.25049999999999
 30
0.0
 10
-50.485599999999998
 20
277.25049999999999
 30
0.0
 10
-97.835499999999996
 20
263.66879999999998
 30
0.0
 10
-138.65209999999999
 20
239.98910000000001
 30
0.0
 10
-138.65209999999999
 20
239.98910000000001
 30
0.0
 10
-138.65209999999999
 20
239.98910000000001
 30
0.0
 10
-134.65299999999999
 20
233.0641
 30
0.0
 10
-134.65299999999999
 20
233.0641
 30
0.0
 10
-134.65299999999999
 20
233.0641
 30
0.0
 10
-95.014099999999999
 20
256.06049999999999
 30
0.0
 10
-49.0306
 20
269.25049999999999
 30
0.0
 10
-0.0609
 20
269.25049999999999
 30
0.0
 10
-0.0609
 20
269.25049999999999
 30
0.0
 10
-0.0609
 20
269.25049999999999
 30
0.0
 10
-0.0609
 20
277.25049999999999
 30
0.0
 10
-0.0609
 20
277.25049999999999
 30
0.0
  0
SPLINE
  5
4D
100
AcDbEntity
  8
EBENE_1
100
AcDbSpline
210
0.0
220
0.0
230
1.0
 70
     1
 71
     3
 72
    20
 73
    16
 74
     0
 42
0.0000000001
 43
0.0000000001
 40
0.0
 40
0.0
 40
0.0
 40
0.0
 40
0.25
 40
0.25
 40
0.25
 40
0.25
 40
0.5
 40
0.5
 40
0.5
 40
0.5
 40
0.75
 40
0.75
 40
0.75
 40
0.75
 40
1.0
 40
1.0
 40
1.0
 40
1.0
 10
-0.0609
 20
274.25049999999999
 30
0.0
 10
-49.939999999999998
 20
274.25049999999999
 30
0.0
 10
-96.777600000000007
 20
260.81560000000002
 30
0.0
 10
-137.1525
 20
237.3922
 30
0.0
 10
-137.1525
 20
237.3922
 30
0.0
 10
-137.1525
 20
237.3922
 30
0.0
 10
-136.15270000000001
 20
235.661
 30
0.0
 10
-136.15270000000001
 20
235.661
 30
0.0
 10
-136.15270000000001
 20
235.661
 30
0.0
 10
-96.072299999999998
 20
258.91370000000001
 30
0.0
 10
-49.576300000000003
 20
272.25049999999999
 30
0.0
 10
-0.0609
 20
272.25049999999999
 30
0.0
 10
-0.0609
 20
272.25049999999999
 30
0.0
 10
-0.0609
 20
272.25049999999999
 30
0.0
 10
-0.0609
 20
274.25049999999999
 30
0.0
 10
-0.0609
 20
274.25049999999999
 30
0.0
  0
SPLINE
  5
4E
100
AcDbEntity
  8
EBENE_1
 62
   251
100
AcDbSpline
210
0.0
220
0.0
230
1.0
 70
     1
 71
     3
 72
    20
 73
    16
 74
     0
 42
0.0000000001
 43
0.0000000001
 40
0.0
 40
0.0
 40
0.0
 40
0.0
 40
0.25
 40
0.25
 40
0.25
 40
0.25
 40
0.5
 40
0.5
 40
0.5
 40
0.5
 40
0.75
 40
0.75
 40
0.75
 40
0.75
 40
1.0
 40
1.0
 40
1.0
 40
1.0
 10
-0.0609
 20
295.75049999999999
 30
0.0
 10
-53.850299999999997
 20
295.75049999999999
 30
0.0
 10
-104.35980000000001
 20
281.26249999999999
 30
0.0
 10
-147.8999
 20
256.0027
 30
0.0
 10
-147.8999
 20
256.0027
 30
0.0
 10
-147.8999
 20
256.0027
 30
0.0
 10
-143.9008
 20
249.0778
 30
0.0
 10
-143.9008
 20
249.0778
 30
0.0
 10
-143.9008
 20
249.0778
 30
0.0
 10
-101.5384
 20
273.65429999999998
 30
0.0
 10
-52.395400000000002
 20
287.75049999999999
 30
0.0
 10
-0.0609
 20
287.75049999999999
 30
0.0
 10
-0.0609
 20
287.75049999999999
 30
0.0
 10
-0.0609
 20
287.75049999999999
 30
0.0
 10
-0.0609
 20
295.75049999999999
 30
0.0
 10
-0.0609
 20
295.75049999999999
 30
0.0
  0
SPLINE
  5
4F
100
AcDbEntity
  8
EBENE_1
100
AcDbSpline
210
0.0
220
0.0
230
1.0
 70
     1
 71
     3
 72
    20
 73
    16
 74
     0
 42
0.0000000001
 43
0.0000000001
 40
0.0
 40
0.0
 40
0.0
 40
0.0
 40
0.25
 40
0.25
 40
0.25
 40
0.25
 40
0.5
 40
0.5
 40
0.5
 40
0.5
 40
0.75
 40
0.75
 40
0.75
 40
0.75
 40
1.0
 40
1.0
 40
1.0
 40
1.0
 10
-0.0609
 20
290.75049999999999
 30
0.0
 10
-52.941000000000003
 20
290.75049999999999
 30
0.0
 10
-102.5964
 20
276.50749999999999
 30
0.0
 10
-145.40049999999999
 20
251.6747
 30
0.0
 10
-145.40049999999999
 20
251.6747
 30
0.0
 10
-145.40049999999999
 20
251.6747
 30
0.0
 10
-146.40020000000001
 20
253.4059
 30
0.0
 10
-146.40020000000001
 20
253.4059
 30
0.0
 10
-146.40020000000001
 20
253.4059
 30
0.0
 10
-103.30159999999999
 20
278.40949999999998
 30
0.0
 10
-53.304699999999997
 20
292.75049999999999
 30
0.0
 10
-0.0609
 20
292.75049999999999
 30
0.0
 10
-0.0609
 20
292.75049999999999
 30
0.0
 10
-0.0609
 20
292.75049999999999
 30
0.0
 10
-0.0609
 20
290.75049999999999
 30
0.0
 10
-0.0609
 20
290.75049999999999
 30
0.0
  0
SPLINE
  5
50
100
AcDbEntity
  8
EBENE_1
100
AcDbSpline
210
0.0
220
0.0
230
1.0
 70
     0
 71
     3
 72
     8
 73
     4
 74
     0
 42
0.0000000001
 43
0.0000000001
 40
0.0
 40
0.0
 40
0.0
 40
0.0
 40
1.0
 40
1.0
 40
1.0
 40
1.0
 10
-0.0768
 20
282.49990000000003
 30
0.0
 10
-51.456400000000002
 20
282.49990000000003
 30
0.0
 10
-99.7029
 20
268.661
 30
0.0
 10
-141.29239999999999
 20
244.53290000000001
 30
0.0
  0
SPLINE
  5
51
100
AcDbEntity
  8
EBENE_1
 62
   252
100
AcDbSpline
210
0.0
220
0.0
230
1.0
 70
     1
 71
     3
 72
    20
 73
    16
 74
     0
 42
0.0000000001
 43
0.0000000001
 40
0.0
 40
0.0
 40
0.0
 40
0.0
 40
0.25
 40
0.25
 40
0.25
 40
0.25
 40
0.5
 40
0.5
 40
0.5
 40
0.5
 40
0.75
 40
0.75
 40
0.75
 40
0.75
 40
1.0
 40
1.0
 40
1.0
 40
1.0
 10
-157.86519999999999
 20
273.23099999999999
 30
0.0
 10
-207.559
 20
244.5472
 30
0.0
 10
-246.49299999999999
 20
204.2278
 30
0.0
 10
-273.24119999999999
 20
157.67310000000001
 30
0.0
 10
-273.24119999999999
 20
157.67310000000001
 30
0.0
 10
-273.24119999999999
 20
157.67310000000001
 30
0.0
 10
-215.88640000000001
 20
124.6448
 30
0.0
 10
-215.88640000000001
 20
124.6448
 30
0.0
 10
-215.88640000000001
 20
124.6448
 30
0.0
 10
-194.47929999999999
 20
161.9034
 30
0.0
 10
-164.50299999999999
 20
192.90090000000001
 30
0.0
 10
-124.7323
 20
215.857
 30
0.0
 10
-124.7323
 20
215.857
 30
0.0
 10
-124.7323
 20
215.857
 30
0.0
 10
-157.86519999999999
 20
273.23099999999999
 30
0.0
 10
-157.86519999999999
 20
273.23099999999999
 30
0.0
  0
SPLINE
  5
52
100
AcDbEntity
  8
EBENE_1
 62
   253
100
AcDbSpline
210
0.0
220
0.0
230
1.0
 70
     1
 71
     3
 72
    20
 73
    16
 74
     0
 42
0.0000000001
 43
0.0000000001
 40
0.0
 40
0.0
 40
0.0
 40
0.0
 40
0.25
 40
0.25
 40
0.25
 40
0.25
 40
0.5
 40
0.5
 40
0.5
 40
0.5
 40
0.75
 40
0.75
 40
0.75
 40
0.75
 40
1.0
 40
1.0
 40
1.0
 40
1.0
 10
-152.34139999999999
 20
263.66570000000002
 30
0.0
 10
-202.0352
 20
234.982
 30
0.0
 10
-236.72929999999999
 20
198.61539999999999
 30
0.0
 10
-263.4776
 20
152.0607
 30
0.0
 10
-263.4776
 20
152.0607
 30
0.0
 10
-263.4776
 20
152.0607
 30
0.0
 10
-226.572
 20
130.87029999999999
 30
0.0
 10
-226.572
 20
130.87029999999999
 30
0.0
 10
-226.572
 20
130.87029999999999
 30
0.0
 10
-205.16480000000001
 20
168.12889999999999
 30
0.0
 10
-170.35830000000001
 20
203.03999999999999
 30
0.0
 10
-130.58750000000001
 20
225.99610000000001
 30
0.0
 10
-130.58750000000001
 20
225.99610000000001
 30
0.0
 10
-130.58750000000001
 20
225.99610000000001
 30
0.0
 10
-152.34139999999999
 20
263.66570000000002
 30
0.0
 10
-152.34139999999999
 20
263.66570000000002
 30
0.0
  0
SPLINE
  5
53
100
AcDbEntity
  8
EBENE_1
100
AcDbSpline
210
0.0
220
0.0
230
1.0
 70
     1
 71
     3
 72
    20
 73
    16
 74
     0
 42
0.0000000001
 43
0.0000000001
 40
0.0
 40
0.0
 40
0.0
 40
0.0
 40
0.25
 40
0.25
 40
0.25
 40
0.25
 40
0.5
 40
0.5
 40
0.5
 40
0.5
 40
0.75
 40
0.75
 40
0.75
 40
0.75
 40
1.0
 40
1.0
 40
1.0
 40
1.0
 10
-146.83369999999999
 20
220.6712
 30
0.0
 10
-146.83369999999999
 20
220.6712
 30
0.0
 10
-165.7765
 20
250.10499999999999
 30
0.0
 10
-165.7765
 20
250.10499999999999
 30
0.0
 10
-165.7765
 20
250.10499999999999
 30
0.0
 10
-165.7765
 20
250.10499999999999
 30
0.0
 10
-159.0471
 20
254.43369999999999
 30
0.0
 10
-159.0471
 20
254.43369999999999
 30
0.0
 10
-159.0471
 20
254.43369999999999
 30
0.0
 10
-159.0471
 20
254.43369999999999
 30
0.0
 10
-140.1044
 20
225.0
 30
0.0
 10
-140.1044
 20
225.0
 30
0.0
 10
-140.1044
 20
225.0
 30
0.0
 10
-140.1044
 20
225.0
 30
0.0
 10
-146.83369999999999
 20
220.6712
 30
0.0
 10
-146.83369999999999
 20
220.6712
 30
0.0
  0
SPLINE
  5
54
100
AcDbEntity
  8
EBENE_1
100
AcDbSpline
210
0.0
220
0.0
230
1.0
 70
     1
 71
     3
 72
    20
 73
    16
 74
     0
 42
0.0000000001
 43
0.0000000001
 40
0.0
 40
0.0
 40
0.0
 40
0.0
 40
0.25
 40
0.25
 40
0.25
 40
0.25
 40
0.5
 40
0.5
 40
0.5
 40
0.5
 40
0.75
 40
0.75
 40
0.75
 40
0.75
 40
1.0
 40
1.0
 40
1.0
 40
1.0
 10
-224.9204
 20
140.31899999999999
 30
0.0
 10
-224.9204
 20
140.31899999999999
 30
0.0
 10
-254.3357
 20
159.29689999999999
 30
0.0
 10
-254.3357
 20
159.29689999999999
 30
0.0
 10
-254.3357
 20
159.29689999999999
 30
0.0
 10
-254.3357
 20
159.29689999999999
 30
0.0
 10
-249.99680000000001
 20
166.0187
 30
0.0
 10
-249.99680000000001
 20
166.0187
 30
0.0
 10
-249.99680000000001
 20
166.0187
 30
0.0
 10
-249.99680000000001
 20
166.0187
 30
0.0
 10
-220.58160000000001
 20
147.04089999999999
 30
0.0
 10
-220.58160000000001
 20
147.04089999999999
 30
0.0
 10
-220.58160000000001
 20
147.04089999999999
 30
0.0
 10
-220.58160000000001
 20
147.04089999999999
 30
0.0
 10
-224.9204
 20
140.31899999999999
 30
0.0
 10
-224.9204
 20
140.31899999999999
 30
0.0
  0
SPLINE
  5
55
100
AcDbEntity
  8
EBENE_1
100
AcDbSpline
210
0.0
220
0.0
230
1.0
 70
     1
 71
     3
 72
    20
 73
    16
 74
     0
 42
0.0000000001
 43
0.0000000001
 40
0.0
 40
0.0
 40
0.0
 40
0.0
 40
0.25
 40
0.25
 40
0.25
 40
0.25
 40
0.5
 40
0.5
 40
0.5
 40
0.5
 40
0.75
 40
0.75
 40
0.75
 40
0.75
 40
1.0
 40
1.0
 40
1.0
 40
1.0
 10
-176.86019999999999
 20
197.44499999999999
 30
0.0
 10
-176.86019999999999
 20
197.44499999999999
 30
0.0
 10
-199.81469999999999
 20
223.87129999999999
 30
0.0
 10
-199.81469999999999
 20
223.87129999999999
 30
0.0
 10
-199.81469999999999
 20
223.87129999999999
 30
0.0
 10
-199.81469999999999
 20
223.87129999999999
 30
0.0
 10
-193.773
 20
229.11670000000001
 30
0.0
 10
-193.773
 20
229.11670000000001
 30
0.0
 10
-193.773
 20
229.11670000000001
 30
0.0
 10
-193.773
 20
229.11670000000001
 30
0.0
 10
-170.8185
 20
202.69049999999999
 30
0.0
 10
-170.8185
 20
202.69049999999999
 30
0.0
 10
-170.8185
 20
202.69049999999999
 30
0.0
 10
-170.8185
 20
202.69049999999999
 30
0.0
 10
-176.86019999999999
 20
197.44499999999999
 30
0.0
 10
-176.86019999999999
 20
197.44499999999999
 30
0.0
  0
SPLINE
  5
56
100
AcDbEntity
  8
EBENE_1
100
AcDbSpline
210
0.0
220
0.0
230
1.0
 70
     1
 71
     3
 72
    20
 73
    16
 74
     0
 42
0.0000000001
 43
0.0000000001
 40
0.0
 40
0.0
 40
0.0
 40
0.0
 40
0.25
 40
0.25
 40
0.25
 40
0.25
 40
0.5
 40
0.5
 40
0.5
 40
0.5
 40
0.75
 40
0.75
 40
0.75
 40
0.75
 40
1.0
 40
1.0
 40
1.0
 40
1.0
 10
-203.19810000000001
 20
170.2422
 30
0.0
 10
-203.19810000000001
 20
170.2422
 30
0.0
 10
-229.685
 20
193.1285
 30
0.0
 10
-229.685
 20
193.1285
 30
0.0
 10
-229.685
 20
193.1285
 30
0.0
 10
-229.685
 20
193.1285
 30
0.0
 10
-224.45249999999999
 20
199.18119999999999
 30
0.0
 10
-224.45249999999999
 20
199.18119999999999
 30
0.0
 10
-224.45249999999999
 20
199.18119999999999
 30
0.0
 10
-224.45249999999999
 20
199.18119999999999
 30
0.0
 10
-197.96559999999999
 20
176.29490000000001
 30
0.0
 10
-197.96559999999999
 20
176.29490000000001
 30
0.0
 10
-197.96559999999999
 20
176.29490000000001
 30
0.0
 10
-197.96559999999999
 20
176.29490000000001
 30
0.0
 10
-203.19810000000001
 20
170.2422
 30
0.0
 10
-203.19810000000001
 20
170.2422
 30
0.0
  0
SPLINE
  5
57
100
AcDbEntity
  8
EBENE_1
 62
   251
100
AcDbSpline
210
0.0
220
0.0
230
1.0
 70
     1
 71
     3
 72
    20
 73
    16
 74
     0
 42
0.0000000001
 43
0.0000000001
 40
0.0
 40
0.0
 40
0.0
 40
0.0
 40
0.25
 40
0.25
 40
0.25
 40
0.25
 40
0.5
 40
0.5
 40
0.5
 40
0.5
 40
0.75
 40
0.75
 40
0.75
 40
0.75
 40
1.0
 40
1.0
 40
1.0
 40
1.0
 10
-138.72210000000001
 20
240.114
 30
0.0
 10
-182.39109999999999
 20
214.90780000000001
 30
0.0
 10
-216.60480000000001
 20
179.47649999999999
 30
0.0
 10
-240.1103
 20
138.5659
 30
0.0
 10
-240.1103
 20
138.5659
 30
0.0
 10
-240.1103
 20
138.5659
 30
0.0
 10
-233.18360000000001
 20
134.56780000000001
 30
0.0
 10
-233.18360000000001
 20
134.56780000000001
 30
0.0
 10
-233.18360000000001
 20
134.56780000000001
 30
0.0
 10
-210.35640000000001
 20
174.2978
 30
0.0
 10
-177.1301
 20
208.70689999999999
 30
0.0
 10
-134.72110000000001
 20
233.1858
 30
0.0
 10
-134.72110000000001
 20
233.1858
 30
0.0
 10
-134.72110000000001
 20
233.1858
 30
0.0
 10
-138.72210000000001
 20
240.114
 30
0.0
 10
-138.72210000000001
 20
240.114
 30
0.0
  0
SPLINE
  5
58
100
AcDbEntity
  8
EBENE_1
100
AcDbSpline
210
0.0
220
0.0
230
1.0
 70
     1
 71
     3
 72
    20
 73
    16
 74
     0
 42
0.0000000001
 43
0.0000000001
 40
0.0
 40
0.0
 40
0.0
 40
0.0
 40
0.25
 40
0.25
 40
0.25
 40
0.25
 40
0.5
 40
0.5
 40
0.5
 40
0.5
 40
0.75
 40
0.75
 40
0.75
 40
0.75
 40
1.0
 40
1.0
 40
1.0
 40
1.0
 10
-137.2217
 20
237.51589999999999
 30
0.0
 10
-180.41820000000001
 20
212.58240000000001
 30
0.0
 10
-214.26159999999999
 20
177.53440000000001
 30
0.0
 10
-237.5128
 20
137.06659999999999
 30
0.0
 10
-237.5128
 20
137.06659999999999
 30
0.0
 10
-237.5128
 20
137.06659999999999
 30
0.0
 10
-235.78120000000001
 20
136.06710000000001
 30
0.0
 10
-235.78120000000001
 20
136.06710000000001
 30
0.0
 10
-235.78120000000001
 20
136.06710000000001
 30
0.0
 10
-212.69970000000001
 20
176.2398
 30
0.0
 10
-179.10300000000001
 20
211.03219999999999
 30
0.0
 10
-136.22149999999999
 20
235.78380000000001
 30
0.0
 10
-136.22149999999999
 20
235.78380000000001
 30
0.0
 10
-136.22149999999999
 20
235.78380000000001
 30
0.0
 10
-137.2217
 20
237.51589999999999
 30
0.0
 10
-137.2217
 20
237.51589999999999
 30
0.0
  0
SPLINE
  5
59
100
AcDbEntity
  8
EBENE_1
 62
   251
100
AcDbSpline
210
0.0
220
0.0
230
1.0
 70
     1
 71
     3
 72
    20
 73
    16
 74
     0
 42
0.0000000001
 43
0.0000000001
 40
0.0
 40
0.0
 40
0.0
 40
0.0
 40
0.25
 40
0.25
 40
0.25
 40
0.25
 40
0.5
 40
0.5
 40
0.5
 40
0.5
 40
0.75
 40
0.75
 40
0.75
 40
0.75
 40
1.0
 40
1.0
 40
1.0
 40
1.0
 10
-147.9743
 20
256.1354
 30
0.0
 10
-194.55719999999999
 20
229.2473
 30
0.0
 10
-231.054
 20
191.45169999999999
 30
0.0
 10
-256.12779999999998
 20
147.81129999999999
 30
0.0
 10
-256.12779999999998
 20
147.81129999999999
 30
0.0
 10
-256.12779999999998
 20
147.81129999999999
 30
0.0
 10
-249.2012
 20
143.81319999999999
 30
0.0
 10
-249.2012
 20
143.81319999999999
 30
0.0
 10
-249.2012
 20
143.81319999999999
 30
0.0
 10
-224.8056
 20
186.2732
 30
0.0
 10
-189.2963
 20
223.04640000000001
 30
0.0
 10
-143.97329999999999
 20
249.2072
 30
0.0
 10
-143.97329999999999
 20
249.2072
 30
0.0
 10
-143.97329999999999
 20
249.2072
 30
0.0
 10
-147.9743
 20
256.1354
 30
0.0
 10
-147.9743
 20
256.1354
 30
0.0
  0
SPLINE
  5
5A
100
AcDbEntity
  8
EBENE_1
100
AcDbSpline
210
0.0
220
0.0
230
1.0
 70
     1
 71
     3
 72
    20
 73
    16
 74
     0
 42
0.0000000001
 43
0.0000000001
 40
0.0
 40
0.0
 40
0.0
 40
0.0
 40
0.25
 40
0.25
 40
0.25
 40
0.25
 40
0.5
 40
0.5
 40
0.5
 40
0.5
 40
0.75
 40
0.75
 40
0.75
 40
0.75
 40
1.0
 40
1.0
 40
1.0
 40
1.0
 10
-145.47370000000001
 20
251.80529999999999
 30
0.0
 10
-191.26910000000001
 20
225.3717
 30
0.0
 10
-227.14879999999999
 20
188.21530000000001
 30
0.0
 10
-251.7988
 20
145.3126
 30
0.0
 10
-251.7988
 20
145.3126
 30
0.0
 10
-251.7988
 20
145.3126
 30
0.0
 10
-253.53039999999999
 20
146.31209999999999
 30
0.0
 10
-253.53039999999999
 20
146.31209999999999
 30
0.0
 10
-253.53039999999999
 20
146.31209999999999
 30
0.0
 10
-228.71080000000001
 20
189.50989999999999
 30
0.0
 10
-192.58439999999999
 20
226.922
 30
0.0
 10
-146.47389999999999
 20
253.53739999999999
 30
0.0
 10
-146.47389999999999
 20
253.53739999999999
 30
0.0
 10
-146.47389999999999
 20
253.53739999999999
 30
0.0
 10
-145.47370000000001
 20
251.80529999999999
 30
0.0
 10
-145.47370000000001
 20
251.80529999999999
 30
0.0
  0
SPLINE
  5
5B
100
AcDbEntity
  8
EBENE_1
100
AcDbSpline
210
0.0
220
0.0
230
1.0
 70
     0
 71
     3
 72
     8
 73
     4
 74
     0
 42
0.0000000001
 43
0.0000000001
 40
0.0
 40
0.0
 40
0.0
 40
0.0
 40
1.0
 40
1.0
 40
1.0
 40
1.0
 10
-141.3612
 20
244.65209999999999
 30
0.0
 10
-185.85720000000001
 20
218.96860000000001
 30
0.0
 10
-220.71870000000001
 20
182.8664
 30
0.0
 10
-244.66929999999999
 20
141.18109999999999
 30
0.0
  0
SPLINE
  5
5C
100
AcDbEntity
  8
EBENE_1
 62
   252
100
AcDbSpline
210
0.0
220
0.0
230
1.0
 70
     1
 71
     3
 72
    20
 73
    16
 74
     0
 42
0.0000000001
 43
0.0000000001
 40
0.0
 40
0.0
 40
0.0
 40
0.0
 40
0.25
 40
0.25
 40
0.25
 40
0.25
 40
0.5
 40
0.5
 40
0.5
 40
0.5
 40
0.75
 40
0.75
 40
0.75
 40
0.75
 40
1.0
 40
1.0
 40
1.0
 40
1.0
 10
-273.37430000000001
 20
157.7499
 30
0.0
 10
-302.06509999999997
 20
108.0682
 30
0.0
 10
-315.61829999999998
 20
53.688299999999998
 30
0.0
 10
-315.49990000000003
 20
-0.0001
 30
0.0
 10
-315.49990000000003
 20
-0.0001
 30
0.0
 10
-315.49990000000003
 20
-0.0001
 30
0.0
 10
-249.31110000000001
 20
0.067
 30
0.0
 10
-249.31110000000001
 20
0.067
 30
0.0
 10
-249.31110000000001
 20
0.067
 30
0.0
 10
-249.4058
 20
43.034799999999997
 30
0.0
 10
-238.94810000000001
 20
84.863900000000001
 30
0.0
 10
-215.9864
 20
124.625
 30
0.0
 10
-215.9864
 20
124.625
 30
0.0
 10
-215.9864
 20
124.625
 30
0.0
 10
-273.37430000000001
 20
157.7499
 30
0.0
 10
-273.37430000000001
 20
157.7499
 30
0.0
  0
SPLINE
  5
5D
100
AcDbEntity
  8
EBENE_1
 62
   253
100
AcDbSpline
210
0.0
220
0.0
230
1.0
 70
     1
 71
     3
 72
    20
 73
    16
 74
     0
 42
0.0000000001
 43
0.0000000001
 40
0.0
 40
0.0
 40
0.0
 40
0.0
 40
0.25
 40
0.25
 40
0.25
 40
0.25
 40
0.5
 40
0.5
 40
0.5
 40
0.5
 40
0.75
 40
0.75
 40
0.75
 40
0.75
 40
1.0
 40
1.0
 40
1.0
 40
1.0
 10
-263.80680000000001
 20
152.22739999999999
 30
0.0
 10
-292.4975
 20
102.5457
 30
0.0
 10
-304.35590000000002
 20
53.708500000000001
 30
0.0
 10
-304.23750000000001
 20
0.02
 30
0.0
 10
-304.23750000000001
 20
0.02
 30
0.0
 10
-304.23750000000001
 20
0.02
 30
0.0
 10
-261.67860000000002
 20
0.1169
 30
0.0
 10
-261.67860000000002
 20
0.1169
 30
0.0
 10
-261.67860000000002
 20
0.1169
 30
0.0
 10
-261.77319999999997
 20
43.084699999999998
 30
0.0
 10
-249.08969999999999
 20
90.717699999999994
 30
0.0
 10
-226.12799999999999
 20
130.47890000000001
 30
0.0
 10
-226.12799999999999
 20
130.47890000000001
 30
0.0
 10
-226.12799999999999
 20
130.47890000000001
 30
0.0
 10
-263.80680000000001
 20
152.22739999999999
 30
0.0
 10
-263.80680000000001
 20
152.22739999999999
 30
0.0
  0
SPLINE
  5
5E
100
AcDbEntity
  8
EBENE_1
100
AcDbSpline
210
0.0
220
0.0
230
1.0
 70
     1
 71
     3
 72
    20
 73
    16
 74
     0
 42
0.0000000001
 43
0.0000000001
 40
0.0
 40
0.0
 40
0.0
 40
0.0
 40
0.25
 40
0.25
 40
0.25
 40
0.25
 40
0.5
 40
0.5
 40
0.5
 40
0.5
 40
0.75
 40
0.75
 40
0.75
 40
0.75
 40
1.0
 40
1.0
 40
1.0
 40
1.0
 10
-237.53460000000001
 20
117.7462
 30
0.0
 10
-237.53460000000001
 20
117.7462
 30
0.0
 10
-268.66000000000003
 20
133.76750000000001
 30
0.0
 10
-268.66000000000003
 20
133.76750000000001
 30
0.0
 10
-268.66000000000003
 20
133.76750000000001
 30
0.0
 10
-268.66000000000003
 20
133.76750000000001
 30
0.0
 10
-264.99709999999999
 20
140.8802
 30
0.0
 10
-264.99709999999999
 20
140.8802
 30
0.0
 10
-264.99709999999999
 20
140.8802
 30
0.0
 10
-264.99709999999999
 20
140.8802
 30
0.0
 10
-233.8716
 20
124.85890000000001
 30
0.0
 10
-233.8716
 20
124.85890000000001
 30
0.0
 10
-233.8716
 20
124.85890000000001
 30
0.0
 10
-233.8716
 20
124.85890000000001
 30
0.0
 10
-237.53460000000001
 20
117.7462
 30
0.0
 10
-237.53460000000001
 20
117.7462
 30
0.0
  0
SPLINE
  5
5F
100
AcDbEntity
  8
EBENE_1
100
AcDbSpline
210
0.0
220
0.0
230
1.0
 70
     1
 71
     3
 72
    20
 73
    16
 74
     0
 42
0.0000000001
 43
0.0000000001
 40
0.0
 40
0.0
 40
0.0
 40
0.0
 40
0.25
 40
0.25
 40
0.25
 40
0.25
 40
0.5
 40
0.5
 40
0.5
 40
0.5
 40
0.75
 40
0.75
 40
0.75
 40
0.75
 40
1.0
 40
1.0
 40
1.0
 40
1.0
 10
-264.97370000000001
 20
9.1252999999999993
 30
0.0
 10
-264.97370000000001
 20
9.1252999999999993
 30
0.0
 10
-299.93939999999998
 20
10.8566
 30
0.0
 10
-299.93939999999998
 20
10.8566
 30
0.0
 10
-299.93939999999998
 20
10.8566
 30
0.0
 10
-299.93939999999998
 20
10.8566
 30
0.0
 10
-299.54360000000003
 20
18.846800000000002
 30
0.0
 10
-299.54360000000003
 20
18.846800000000002
 30
0.0
 10
-299.54360000000003
 20
18.846800000000002
 30
0.0
 10
-299.54360000000003
 20
18.846800000000002
 30
0.0
 10
-264.5779
 20
17.115500000000001
 30
0.0
 10
-264.5779
 20
17.115500000000001
 30
0.0
 10
-264.5779
 20
17.115500000000001
 30
0.0
 10
-264.5779
 20
17.115500000000001
 30
0.0
 10
-264.97370000000001
 20
9.1252999999999993
 30
0.0
 10
-264.97370000000001
 20
9.1252999999999993
 30
0.0
  0
SPLINE
  5
60
100
AcDbEntity
  8
EBENE_1
100
AcDbSpline
210
0.0
220
0.0
230
1.0
 70
     1
 71
     3
 72
    20
 73
    16
 74
     0
 42
0.0000000001
 43
0.0000000001
 40
0.0
 40
0.0
 40
0.0
 40
0.0
 40
0.25
 40
0.25
 40
0.25
 40
0.25
 40
0.5
 40
0.5
 40
0.5
 40
0.5
 40
0.75
 40
0.75
 40
0.75
 40
0.75
 40
1.0
 40
1.0
 40
1.0
 40
1.0
 10
-251.92240000000001
 20
82.622100000000003
 30
0.0
 10
-251.92240000000001
 20
82.622100000000003
 30
0.0
 10
-285.0179
 20
94.033500000000004
 30
0.0
 10
-285.0179
 20
94.033500000000004
 30
0.0
 10
-285.0179
 20
94.033500000000004
 30
0.0
 10
-285.0179
 20
94.033500000000004
 30
0.0
 10
-282.40890000000002
 20
101.5963
 30
0.0
 10
-282.40890000000002
 20
101.5963
 30
0.0
 10
-282.40890000000002
 20
101.5963
 30
0.0
 10
-282.40890000000002
 20
101.5963
 30
0.0
 10
-249.3134
 20
90.185000000000002
 30
0.0
 10
-249.3134
 20
90.185000000000002
 30
0.0
 10
-249.3134
 20
90.185000000000002
 30
0.0
 10
-249.3134
 20
90.185000000000002
 30
0.0
 10
-251.92240000000001
 20
82.622100000000003
 30
0.0
 10
-251.92240000000001
 20
82.622100000000003
 30
0.0
  0
SPLINE
  5
61
100
AcDbEntity
  8
EBENE_1
100
AcDbSpline
210
0.0
220
0.0
230
1.0
 70
     1
 71
     3
 72
    20
 73
    16
 74
     0
 42
0.0000000001
 43
0.0000000001
 40
0.0
 40
0.0
 40
0.0
 40
0.0
 40
0.25
 40
0.25
 40
0.25
 40
0.25
 40
0.5
 40
0.5
 40
0.5
 40
0.5
 40
0.75
 40
0.75
 40
0.75
 40
0.75
 40
1.0
 40
1.0
 40
1.0
 40
1.0
 10
-261.1268
 20
45.898099999999999
 30
0.0
 10
-261.1268
 20
45.898099999999999
 30
0.0
 10
-295.5111
 20
52.478000000000002
 30
0.0
 10
-295.5111
 20
52.478000000000002
 30
0.0
 10
-295.5111
 20
52.478000000000002
 30
0.0
 10
-295.5111
 20
52.478000000000002
 30
0.0
 10
-294.0068
 20
60.335299999999997
 30
0.0
 10
-294.0068
 20
60.335299999999997
 30
0.0
 10
-294.0068
 20
60.335299999999997
 30
0.0
 10
-294.0068
 20
60.335299999999997
 30
0.0
 10
-259.6225
 20
53.755499999999998
 30
0.0
 10
-259.6225
 20
53.755499999999998
 30
0.0
 10
-259.6225
 20
53.755499999999998
 30
0.0
 10
-259.6225
 20
53.755499999999998
 30
0.0
 10
-261.1268
 20
45.898099999999999
 30
0.0
 10
-261.1268
 20
45.898099999999999
 30
0.0
  0
SPLINE
  5
62
100
AcDbEntity
  8
EBENE_1
 62
   251
100
AcDbSpline
210
0.0
220
0.0
230
1.0
 70
     1
 71
     3
 72
    20
 73
    16
 74
     0
 42
0.0000000001
 43
0.0000000001
 40
0.0
 40
0.0
 40
0.0
 40
0.0
 40
0.25
 40
0.25
 40
0.25
 40
0.25
 40
0.5
 40
0.5
 40
0.5
 40
0.5
 40
0.75
 40
0.75
 40
0.75
 40
0.75
 40
1.0
 40
1.0
 40
1.0
 40
1.0
 10
-240.23339999999999
 20
138.63900000000001
 30
0.0
 10
-265.44569999999999
 20
94.980599999999995
 30
0.0
 10
-277.35570000000001
 20
47.1935
 30
0.0
 10
-277.25189999999998
 20
0.014
 30
0.0
 10
-277.25189999999998
 20
0.014
 30
0.0
 10
-277.25189999999998
 20
0.014
 30
0.0
 10
-269.25349999999997
 20
0.014
 30
0.0
 10
-269.25349999999997
 20
0.014
 30
0.0
 10
-269.25349999999997
 20
0.014
 30
0.0
 10
-269.35449999999997
 20
45.832099999999997
 30
0.0
 10
-257.78829999999999
 20
92.240300000000005
 30
0.0
 10
-233.30350000000001
 20
134.63900000000001
 30
0.0
 10
-233.30350000000001
 20
134.63900000000001
 30
0.0
 10
-233.30350000000001
 20
134.63900000000001
 30
0.0
 10
-240.23339999999999
 20
138.63900000000001
 30
0.0
 10
-240.23339999999999
 20
138.63900000000001
 30
0.0
  0
SPLINE
  5
63
100
AcDbEntity
  8
EBENE_1
100
AcDbSpline
210
0.0
220
0.0
230
1.0
 70
     1
 71
     3
 72
    20
 73
    16
 74
     0
 42
0.0000000001
 43
0.0000000001
 40
0.0
 40
0.0
 40
0.0
 40
0.0
 40
0.25
 40
0.25
 40
0.25
 40
0.25
 40
0.5
 40
0.5
 40
0.5
 40
0.5
 40
0.75
 40
0.75
 40
0.75
 40
0.75
 40
1.0
 40
1.0
 40
1.0
 40
1.0
 10
-237.63470000000001
 20
137.13900000000001
 30
0.0
 10
-262.57420000000002
 20
93.953000000000003
 30
0.0
 10
-274.35520000000002
 20
46.6828
 30
0.0
 10
-274.25240000000002
 20
0.0139
 30
0.0
 10
-274.25240000000002
 20
0.0139
 30
0.0
 10
-274.25240000000002
 20
0.0139
 30
0.0
 10
-272.25299999999999
 20
0.0139
 30
0.0
 10
-272.25299999999999
 20
0.0139
 30
0.0
 10
-272.25299999999999
 20
0.0139
 30
0.0
 10
-272.35509999999999
 20
46.342500000000001
 30
0.0
 10
-260.65989999999999
 20
93.267899999999997
 30
0.0
 10
-235.90219999999999
 20
136.13900000000001
 30
0.0
 10
-235.90219999999999
 20
136.13900000000001
 30
0.0
 10
-235.90219999999999
 20
136.13900000000001
 30
0.0
 10
-237.63470000000001
 20
137.13900000000001
 30
0.0
 10
-237.63470000000001
 20
137.13900000000001
 30
0.0
  0
SPLINE
  5
64
100
AcDbEntity
  8
EBENE_1
 62
   251
100
AcDbSpline
210
0.0
220
0.0
230
1.0
 70
     1
 71
     3
 72
    20
 73
    16
 74
     0
 42
0.0000000001
 43
0.0000000001
 40
0.0
 40
0.0
 40
0.0
 40
0.0
 40
0.25
 40
0.25
 40
0.25
 40
0.25
 40
0.5
 40
0.5
 40
0.5
 40
0.5
 40
0.75
 40
0.75
 40
0.75
 40
0.75
 40
1.0
 40
1.0
 40
1.0
 40
1.0
 10
-256.25880000000001
 20
147.88900000000001
 30
0.0
 10
-283.15350000000001
 20
101.3173
 30
0.0
 10
-295.85820000000001
 20
50.341500000000003
 30
0.0
 10
-295.7473
 20
0.0139
 30
0.0
 10
-295.7473
 20
0.0139
 30
0.0
 10
-295.7473
 20
0.0139
 30
0.0
 10
-287.7491
 20
0.0139
 30
0.0
 10
-287.7491
 20
0.0139
 30
0.0
 10
-287.7491
 20
0.0139
 30
0.0
 10
-287.85700000000003
 20
48.980200000000004
 30
0.0
 10
-275.49610000000001
 20
98.577100000000002
 30
0.0
 10
-249.3289
 20
143.88900000000001
 30
0.0
 10
-249.3289
 20
143.88900000000001
 30
0.0
 10
-249.3289
 20
143.88900000000001
 30
0.0
 10
-256.25880000000001
 20
147.88900000000001
 30
0.0
 10
-256.25880000000001
 20
147.88900000000001
 30
0.0
  0
SPLINE
  5
65
100
AcDbEntity
  8
EBENE_1
100
AcDbSpline
210
0.0
220
0.0
230
1.0
 70
     1
 71
     3
 72
    20
 73
    16
 74
     0
 42
0.0000000001
 43
0.0000000001
 40
0.0
 40
0.0
 40
0.0
 40
0.0
 40
0.25
 40
0.25
 40
0.25
 40
0.25
 40
0.5
 40
0.5
 40
0.5
 40
0.5
 40
0.75
 40
0.75
 40
0.75
 40
0.75
 40
1.0
 40
1.0
 40
1.0
 40
1.0
 10
-251.92760000000001
 20
145.38900000000001
 30
0.0
 10
-278.36759999999998
 20
99.604600000000005
 30
0.0
 10
-290.85750000000002
 20
49.4908
 30
0.0
 10
-290.74849999999998
 20
0.0139
 30
0.0
 10
-290.74849999999998
 20
0.0139
 30
0.0
 10
-290.74849999999998
 20
0.0139
 30
0.0
 10
-292.74799999999999
 20
0.014
 30
0.0
 10
-292.74799999999999
 20
0.014
 30
0.0
 10
-292.74799999999999
 20
0.014
 30
0.0
 10
-292.8578
 20
49.831099999999999
 30
0.0
 10
-280.28190000000001
 20
100.2898
 30
0.0
 10
-253.66
 20
146.38900000000001
 30
0.0
 10
-253.66
 20
146.38900000000001
 30
0.0
 10
-253.66
 20
146.38900000000001
 30
0.0
 10
-251.92760000000001
 20
145.38900000000001
 30
0.0
 10
-251.92760000000001
 20
145.38900000000001
 30
0.0
  0
SPLINE
  5
66
100
AcDbEntity
  8
EBENE_1
100
AcDbSpline
210
0.0
220
0.0
230
1.0
 70
     0
 71
     3
 72
     8
 73
     4
 74
     0
 42
0.0000000001
 43
0.0000000001
 40
0.0
 40
0.0
 40
0.0
 40
0.0
 40
1.0
 40
1.0
 40
1.0
 40
1.0
 10
-244.7886
 20
141.2499
 30
0.0
 10
-270.47829999999999
 20
96.764700000000005
 30
0.0
 10
-282.6139
 20
48.072800000000001
 30
0.0
 10
-282.50799999999998
 20
-0.0001
 30
0.0
  0
SPLINE
  5
67
100
AcDbEntity
  8
EBENE_1
 62
   252
100
AcDbSpline
210
0.0
220
0.0
230
1.0
 70
     1
 71
     3
 72
    20
 73
    16
 74
     0
 42
0.0000000001
 43
0.0000000001
 40
0.0
 40
0.0
 40
0.0
 40
0.0
 40
0.25
 40
0.25
 40
0.25
 40
0.25
 40
0.5
 40
0.5
 40
0.5
 40
0.5
 40
0.75
 40
0.75
 40
0.75
 40
0.75
 40
1.0
 40
1.0
 40
1.0
 40
1.0
 10
-315.5
 20
-0.1375
 30
0.0
 10
-315.5
 20
-57.505000000000003
 30
0.0
 10
-300.04079999999999
 20
-111.37430000000001
 30
0.0
 10
-273.08760000000001
 20
-157.8107
 30
0.0
 10
-273.08760000000001
 20
-157.8107
 30
0.0
 10
-273.08760000000001
 20
-157.8107
 30
0.0
 10
-215.79990000000001
 20
-124.6662
 30
0.0
 10
-215.79990000000001
 20
-124.6662
 30
0.0
 10
-215.79990000000001
 20
-124.6662
 30
0.0
 10
-237.37110000000001
 20
-87.502300000000005
 30
0.0
 10
-249.23410000000001
 20
-46.049700000000001
 30
0.0
 10
-249.23410000000001
 20
-0.1375
 30
0.0
 10
-249.23410000000001
 20
-0.1375
 30
0.0
 10
-249.23410000000001
 20
-0.1375
 30
0.0
 10
-315.5
 20
-0.1375
 30
0.0
 10
-315.5
 20
-0.1375
 30
0.0
  0
SPLINE
  5
68
100
AcDbEntity
  8
EBENE_1
 62
   253
100
AcDbSpline
210
0.0
220
0.0
230
1.0
 70
     1
 71
     3
 72
    20
 73
    16
 74
     0
 42
0.0000000001
 43
0.0000000001
 40
0.0
 40
0.0
 40
0.0
 40
0.0
 40
0.25
 40
0.25
 40
0.25
 40
0.25
 40
0.5
 40
0.5
 40
0.5
 40
0.5
 40
0.75
 40
0.75
 40
0.75
 40
0.75
 40
1.0
 40
1.0
 40
1.0
 40
1.0
 10
-304.45229999999998
 20
-0.1375
 30
0.0
 10
-304.45229999999998
 20
-57.505000000000003
 30
0.0
 10
-290.29730000000001
 20
-105.727
 30
0.0
 10
-263.34410000000003
 20
-152.1634
 30
0.0
 10
-263.34410000000003
 20
-152.1634
 30
0.0
 10
-263.34410000000003
 20
-152.1634
 30
0.0
 10
-226.53540000000001
 20
-130.80520000000001
 30
0.0
 10
-226.53540000000001
 20
-130.80520000000001
 30
0.0
 10
-226.53540000000001
 20
-130.80520000000001
 30
0.0
 10
-248.10659999999999
 20
-93.641300000000001
 30
0.0
 10
-260.94459999999998
 20
-46.049700000000001
 30
0.0
 10
-260.94459999999998
 20
-0.1375
 30
0.0
 10
-260.94459999999998
 20
-0.1375
 30
0.0
 10
-260.94459999999998
 20
-0.1375
 30
0.0
 10
-304.45229999999998
 20
-0.1375
 30
0.0
 10
-304.45229999999998
 20
-0.1375
 30
0.0
  0
SPLINE
  5
69
100
AcDbEntity
  8
EBENE_1
100
AcDbSpline
210
0.0
220
0.0
230
1.0
 70
     1
 71
     3
 72
    20
 73
    16
 74
     0
 42
0.0000000001
 43
0.0000000001
 40
0.0
 40
0.0
 40
0.0
 40
0.0
 40
0.25
 40
0.25
 40
0.25
 40
0.25
 40
0.5
 40
0.5
 40
0.5
 40
0.5
 40
0.75
 40
0.75
 40
0.75
 40
0.75
 40
1.0
 40
1.0
 40
1.0
 40
1.0
 10
-264.45510000000002
 20
-16.866199999999999
 30
0.0
 10
-264.45510000000002
 20
-16.866199999999999
 30
0.0
 10
-299.42309999999998
 20
-18.5502
 30
0.0
 10
-299.42309999999998
 20
-18.5502
 30
0.0
 10
-299.42309999999998
 20
-18.5502
 30
0.0
 10
-299.42309999999998
 20
-18.5502
 30
0.0
 10
-299.80810000000002
 20
-10.5595
 30
0.0
 10
-299.80810000000002
 20
-10.5595
 30
0.0
 10
-299.80810000000002
 20
-10.5595
 30
0.0
 10
-299.80810000000002
 20
-10.5595
 30
0.0
 10
-264.84019999999998
 20
-8.8754000000000008
 30
0.0
 10
-264.84019999999998
 20
-8.8754000000000008
 30
0.0
 10
-264.84019999999998
 20
-8.8754000000000008
 30
0.0
 10
-264.84019999999998
 20
-8.8754000000000008
 30
0.0
 10
-264.45510000000002
 20
-16.866199999999999
 30
0.0
 10
-264.45510000000002
 20
-16.866199999999999
 30
0.0
  0
SPLINE
  5
6A
100
AcDbEntity
  8
EBENE_1
100
AcDbSpline
210
0.0
220
0.0
230
1.0
 70
     1
 71
     3
 72
    20
 73
    16
 74
     0
 42
0.0000000001
 43
0.0000000001
 40
0.0
 40
0.0
 40
0.0
 40
0.0
 40
0.25
 40
0.25
 40
0.25
 40
0.25
 40
0.5
 40
0.5
 40
0.5
 40
0.5
 40
0.75
 40
0.75
 40
0.75
 40
0.75
 40
1.0
 40
1.0
 40
1.0
 40
1.0
 10
-233.89439999999999
 20
-124.65089999999999
 30
0.0
 10
-233.89439999999999
 20
-124.65089999999999
 30
0.0
 10
-265.04140000000001
 20
-140.6302
 30
0.0
 10
-265.04140000000001
 20
-140.6302
 30
0.0
 10
-265.04140000000001
 20
-140.6302
 30
0.0
 10
-265.04140000000001
 20
-140.6302
 30
0.0
 10
-268.69470000000001
 20
-133.51259999999999
 30
0.0
 10
-268.69470000000001
 20
-133.51259999999999
 30
0.0
 10
-268.69470000000001
 20
-133.51259999999999
 30
0.0
 10
-268.69470000000001
 20
-133.51259999999999
 30
0.0
 10
-237.54769999999999
 20
-117.5333
 30
0.0
 10
-237.54769999999999
 20
-117.5333
 30
0.0
 10
-237.54769999999999
 20
-117.5333
 30
0.0
 10
-237.54769999999999
 20
-117.5333
 30
0.0
 10
-233.89439999999999
 20
-124.65089999999999
 30
0.0
 10
-233.89439999999999
 20
-124.65089999999999
 30
0.0
  0
SPLINE
  5
6B
100
AcDbEntity
  8
EBENE_1
100
AcDbSpline
210
0.0
220
0.0
230
1.0
 70
     1
 71
     3
 72
    20
 73
    16
 74
     0
 42
0.0000000001
 43
0.0000000001
 40
0.0
 40
0.0
 40
0.0
 40
0.0
 40
0.25
 40
0.25
 40
0.25
 40
0.25
 40
0.5
 40
0.5
 40
0.5
 40
0.5
 40
0.75
 40
0.75
 40
0.75
 40
0.75
 40
1.0
 40
1.0
 40
1.0
 40
1.0
 10
-259.34899999999999
 20
-54.476700000000001
 30
0.0
 10
-259.34899999999999
 20
-54.476700000000001
 30
0.0
 10
-293.7176
 20
-61.137900000000002
 30
0.0
 10
-293.7176
 20
-61.137900000000002
 30
0.0
 10
-293.7176
 20
-61.137900000000002
 30
0.0
 10
-293.7176
 20
-61.137900000000002
 30
0.0
 10
-295.24059999999997
 20
-53.284100000000002
 30
0.0
 10
-295.24059999999997
 20
-53.284100000000002
 30
0.0
 10
-295.24059999999997
 20
-53.284100000000002
 30
0.0
 10
-295.24059999999997
 20
-53.284100000000002
 30
0.0
 10
-260.87189999999998
 20
-46.622900000000001
 30
0.0
 10
-260.87189999999998
 20
-46.622900000000001
 30
0.0
 10
-260.87189999999998
 20
-46.622900000000001
 30
0.0
 10
-260.87189999999998
 20
-46.622900000000001
 30
0.0
 10
-259.34899999999999
 20
-54.476700000000001
 30
0.0
 10
-259.34899999999999
 20
-54.476700000000001
 30
0.0
  0
SPLINE
  5
6C
100
AcDbEntity
  8
EBENE_1
100
AcDbSpline
210
0.0
220
0.0
230
1.0
 70
     1
 71
     3
 72
    20
 73
    16
 74
     0
 42
0.0000000001
 43
0.0000000001
 40
0.0
 40
0.0
 40
0.0
 40
0.0
 40
0.25
 40
0.25
 40
0.25
 40
0.25
 40
0.5
 40
0.5
 40
0.5
 40
0.5
 40
0.75
 40
0.75
 40
0.75
 40
0.75
 40
1.0
 40
1.0
 40
1.0
 40
1.0
 10
-248.9538
 20
-90.881699999999995
 30
0.0
 10
-248.9538
 20
-90.881699999999995
 30
0.0
 10
-282.0222
 20
-102.37130000000001
 30
0.0
 10
-282.0222
 20
-102.37130000000001
 30
0.0
 10
-282.0222
 20
-102.37130000000001
 30
0.0
 10
-282.0222
 20
-102.37130000000001
 30
0.0
 10
-284.64909999999998
 20
-94.814700000000002
 30
0.0
 10
-284.64909999999998
 20
-94.814700000000002
 30
0.0
 10
-284.64909999999998
 20
-94.814700000000002
 30
0.0
 10
-284.64909999999998
 20
-94.814700000000002
 30
0.0
 10
-251.5806
 20
-83.325100000000006
 30
0.0
 10
-251.5806
 20
-83.325100000000006
 30
0.0
 10
-251.5806
 20
-83.325100000000006
 30
0.0
 10
-251.5806
 20
-83.325100000000006
 30
0.0
 10
-248.9538
 20
-90.881699999999995
 30
0.0
 10
-248.9538
 20
-90.881699999999995
 30
0.0
  0
SPLINE
  5
6D
100
AcDbEntity
  8
EBENE_1
 62
   251
100
AcDbSpline
210
0.0
220
0.0
230
1.0
 70
     1
 71
     3
 72
    20
 73
    16
 74
     0
 42
0.0000000001
 43
0.0000000001
 40
0.0
 40
0.0
 40
0.0
 40
0.0
 40
0.25
 40
0.25
 40
0.25
 40
0.25
 40
0.5
 40
0.5
 40
0.5
 40
0.5
 40
0.75
 40
0.75
 40
0.75
 40
0.75
 40
1.0
 40
1.0
 40
1.0
 40
1.0
 10
-277.24130000000002
 20
-0.1216
 30
0.0
 10
-277.24130000000002
 20
-50.533999999999999
 30
0.0
 10
-263.65629999999999
 20
-97.872399999999999
 30
0.0
 10
-239.9708
 20
-138.67910000000001
 30
0.0
 10
-239.9708
 20
-138.67910000000001
 30
0.0
 10
-239.9708
 20
-138.67910000000001
 30
0.0
 10
-233.04409999999999
 20
-134.68090000000001
 30
0.0
 10
-233.04409999999999
 20
-134.68090000000001
 30
0.0
 10
-233.04409999999999
 20
-134.68090000000001
 30
0.0
 10
-256.04610000000002
 20
-95.051699999999997
 30
0.0
 10
-269.23930000000001
 20
-49.0794
 30
0.0
 10
-269.23930000000001
 20
-0.1216
 30
0.0
 10
-269.23930000000001
 20
-0.1216
 30
0.0
 10
-269.23930000000001
 20
-0.1216
 30
0.0
 10
-277.24130000000002
 20
-0.1216
 30
0.0
 10
-277.24130000000002
 20
-0.1216
 30
0.0
  0
SPLINE
  5
6E
100
AcDbEntity
  8
EBENE_1
100
AcDbSpline
210
0.0
220
0.0
230
1.0
 70
     1
 71
     3
 72
    20
 73
    16
 74
     0
 42
0.0000000001
 43
0.0000000001
 40
0.0
 40
0.0
 40
0.0
 40
0.0
 40
0.25
 40
0.25
 40
0.25
 40
0.25
 40
0.5
 40
0.5
 40
0.5
 40
0.5
 40
0.75
 40
0.75
 40
0.75
 40
0.75
 40
1.0
 40
1.0
 40
1.0
 40
1.0
 10
-274.2405
 20
-0.1216
 30
0.0
 10
-274.2405
 20
-49.988500000000002
 30
0.0
 10
-260.80239999999998
 20
-96.814700000000002
 30
0.0
 10
-237.3733
 20
-137.1798
 30
0.0
 10
-237.3733
 20
-137.1798
 30
0.0
 10
-237.3733
 20
-137.1798
 30
0.0
 10
-235.64160000000001
 20
-136.18029999999999
 30
0.0
 10
-235.64160000000001
 20
-136.18029999999999
 30
0.0
 10
-235.64160000000001
 20
-136.18029999999999
 30
0.0
 10
-258.89999999999998
 20
-96.1096
 30
0.0
 10
-272.24009999999998
 20
-49.624899999999997
 30
0.0
 10
-272.24009999999998
 20
-0.1216
 30
0.0
 10
-272.24009999999998
 20
-0.1216
 30
0.0
 10
-272.24009999999998
 20
-0.1216
 30
0.0
 10
-274.2405
 20
-0.1216
 30
0.0
 10
-274.2405
 20
-0.1216
 30
0.0
  0
SPLINE
  5
6F
100
AcDbEntity
  8
EBENE_1
 62
   251
100
AcDbSpline
210
0.0
220
0.0
230
1.0
 70
     1
 71
     3
 72
    20
 73
    16
 74
     0
 42
0.0000000001
 43
0.0000000001
 40
0.0
 40
0.0
 40
0.0
 40
0.0
 40
0.25
 40
0.25
 40
0.25
 40
0.25
 40
0.5
 40
0.5
 40
0.5
 40
0.5
 40
0.75
 40
0.75
 40
0.75
 40
0.75
 40
1.0
 40
1.0
 40
1.0
 40
1.0
 10
-295.74579999999997
 20
-0.1216
 30
0.0
 10
-295.74579999999997
 20
-53.8979
 30
0.0
 10
-281.25420000000003
 20
-104.3951
 30
0.0
 10
-255.98830000000001
 20
-147.9246
 30
0.0
 10
-255.98830000000001
 20
-147.9246
 30
0.0
 10
-255.98830000000001
 20
-147.9246
 30
0.0
 10
-249.0617
 20
-143.9265
 30
0.0
 10
-249.0617
 20
-143.9265
 30
0.0
 10
-249.0617
 20
-143.9265
 30
0.0
 10
-273.64420000000001
 20
-101.5744
 30
0.0
 10
-287.74380000000002
 20
-52.443300000000001
 30
0.0
 10
-287.74380000000002
 20
-0.1216
 30
0.0
 10
-287.74380000000002
 20
-0.1216
 30
0.0
 10
-287.74380000000002
 20
-0.1216
 30
0.0
 10
-295.74579999999997
 20
-0.1216
 30
0.0
 10
-295.74579999999997
 20
-0.1216
 30
0.0
  0
SPLINE
  5
70
100
AcDbEntity
  8
EBENE_1
100
AcDbSpline
210
0.0
220
0.0
230
1.0
 70
     1
 71
     3
 72
    20
 73
    16
 74
     0
 42
0.0000000001
 43
0.0000000001
 40
0.0
 40
0.0
 40
0.0
 40
0.0
 40
0.25
 40
0.25
 40
0.25
 40
0.25
 40
0.5
 40
0.5
 40
0.5
 40
0.5
 40
0.75
 40
0.75
 40
0.75
 40
0.75
 40
1.0
 40
1.0
 40
1.0
 40
1.0
 10
-290.74459999999999
 20
-0.1216
 30
0.0
 10
-290.74459999999999
 20
-52.988799999999998
 30
0.0
 10
-276.49810000000002
 20
-102.63209999999999
 30
0.0
 10
-251.6592
 20
-145.42580000000001
 30
0.0
 10
-251.6592
 20
-145.42580000000001
 30
0.0
 10
-251.6592
 20
-145.42580000000001
 30
0.0
 10
-253.39089999999999
 20
-146.42529999999999
 30
0.0
 10
-253.39089999999999
 20
-146.42529999999999
 30
0.0
 10
-253.39089999999999
 20
-146.42529999999999
 30
0.0
 10
-278.4006
 20
-103.3372
 30
0.0
 10
-292.745
 20
-53.352400000000003
 30
0.0
 10
-292.745
 20
-0.1216
 30
0.0
 10
-292.745
 20
-0.1216
 30
0.0
 10
-292.745
 20
-0.1216
 30
0.0
 10
-290.74459999999999
 20
-0.1216
 30
0.0
 10
-290.74459999999999
 20
-0.1216
 30
0.0
  0
SPLINE
  5
71
100
AcDbEntity
  8
EBENE_1
100
AcDbSpline
210
0.0
220
0.0
230
1.0
 70
     0
 71
     3
 72
     8
 73
     4
 74
     0
 42
0.0000000001
 43
0.0000000001
 40
0.0
 40
0.0
 40
0.0
 40
0.0
 40
1.0
 40
1.0
 40
1.0
 40
1.0
 10
-282.49189999999999
 20
-0.1375
 30
0.0
 10
-282.49189999999999
 20
-51.504600000000003
 30
0.0
 10
-268.6497
 20
-99.7393
 30
0.0
 10
-244.51570000000001
 20
-141.31870000000001
 30
0.0
  0
SPLINE
  5
72
100
AcDbEntity
  8
EBENE_1
 62
   252
100
AcDbSpline
210
0.0
220
0.0
230
1.0
 70
     1
 71
     3
 72
    20
 73
    16
 74
     0
 42
0.0000000001
 43
0.0000000001
 40
0.0
 40
0.0
 40
0.0
 40
0.0
 40
0.25
 40
0.25
 40
0.25
 40
0.25
 40
0.5
 40
0.5
 40
0.5
 40
0.5
 40
0.75
 40
0.75
 40
0.75
 40
0.75
 40
1.0
 40
1.0
 40
1.0
 40
1.0
 10
-273.2208
 20
-157.88749999999999
 30
0.0
 10
-244.53
 20
-207.5692
 30
0.0
 10
-204.20079999999999
 20
-246.49369999999999
 30
0.0
 10
-157.63480000000001
 20
-273.23540000000003
 30
0.0
 10
-157.63480000000001
 20
-273.23540000000003
 30
0.0
 10
-157.63480000000001
 20
-273.23540000000003
 30
0.0
 10
-124.5984
 20
-215.8946
 30
0.0
 10
-124.5984
 20
-215.8946
 30
0.0
 10
-124.5984
 20
-215.8946
 30
0.0
 10
-161.86609999999999
 20
-194.49270000000001
 30
0.0
 10
-192.87110000000001
 20
-164.52369999999999
 30
0.0
 10
-215.83279999999999
 20
-124.76260000000001
 30
0.0
 10
-215.83279999999999
 20
-124.76260000000001
 30
0.0
 10
-215.83279999999999
 20
-124.76260000000001
 30
0.0
 10
-273.2208
 20
-157.88749999999999
 30
0.0
 10
-273.2208
 20
-157.88749999999999
 30
0.0
  0
SPLINE
  5
73
100
AcDbEntity
  8
EBENE_1
 62
   253
100
AcDbSpline
210
0.0
220
0.0
230
1.0
 70
     1
 71
     3
 72
    20
 73
    16
 74
     0
 42
0.0000000001
 43
0.0000000001
 40
0.0
 40
0.0
 40
0.0
 40
0.0
 40
0.25
 40
0.25
 40
0.25
 40
0.25
 40
0.5
 40
0.5
 40
0.5
 40
0.5
 40
0.75
 40
0.75
 40
0.75
 40
0.75
 40
1.0
 40
1.0
 40
1.0
 40
1.0
 10
-263.65320000000003
 20
-152.36500000000001
 30
0.0
 10
-234.96250000000001
 20
-202.04669999999999
 30
0.0
 10
-198.58699999999999
 20
-236.73240000000001
 30
0.0
 10
-152.02099999999999
 20
-263.4742
 30
0.0
 10
-152.02099999999999
 20
-263.4742
 30
0.0
 10
-152.02099999999999
 20
-263.4742
 30
0.0
 10
-130.8254
 20
-226.57759999999999
 30
0.0
 10
-130.8254
 20
-226.57759999999999
 30
0.0
 10
-130.8254
 20
-226.57759999999999
 30
0.0
 10
-168.09309999999999
 20
-205.1756
 30
0.0
 10
-203.0127
 20
-170.3775
 30
0.0
 10
-225.9744
 20
-130.6164
 30
0.0
 10
-225.9744
 20
-130.6164
 30
0.0
 10
-225.9744
 20
-130.6164
 30
0.0
 10
-263.65320000000003
 20
-152.36500000000001
 30
0.0
 10
-263.65320000000003
 20
-152.36500000000001
 30
0.0
  0
SPLINE
  5
74
100
AcDbEntity
  8
EBENE_1
100
AcDbSpline
210
0.0
220
0.0
230
1.0
 70
     1
 71
     3
 72
    20
 73
    16
 74
     0
 42
0.0000000001
 43
0.0000000001
 40
0.0
 40
0.0
 40
0.0
 40
0.0
 40
0.25
 40
0.25
 40
0.25
 40
0.25
 40
0.5
 40
0.5
 40
0.5
 40
0.5
 40
0.75
 40
0.75
 40
0.75
 40
0.75
 40
1.0
 40
1.0
 40
1.0
 40
1.0
 10
-220.6482
 20
-146.8587
 30
0.0
 10
-220.6482
 20
-146.8587
 30
0.0
 10
-250.08920000000001
 20
-165.79689999999999
 30
0.0
 10
-250.08920000000001
 20
-165.79689999999999
 30
0.0
 10
-250.08920000000001
 20
-165.79689999999999
 30
0.0
 10
-250.08920000000001
 20
-165.79689999999999
 30
0.0
 10
-254.41890000000001
 20
-159.06909999999999
 30
0.0
 10
-254.41890000000001
 20
-159.06909999999999
 30
0.0
 10
-254.41890000000001
 20
-159.06909999999999
 30
0.0
 10
-254.41890000000001
 20
-159.06909999999999
 30
0.0
 10
-224.97810000000001
 20
-140.131
 30
0.0
 10
-224.97810000000001
 20
-140.131
 30
0.0
 10
-224.97810000000001
 20
-140.131
 30
0.0
 10
-224.97810000000001
 20
-140.131
 30
0.0
 10
-220.6482
 20
-146.8587
 30
0.0
 10
-220.6482
 20
-146.8587
 30
0.0
  0
SPLINE
  5
75
100
AcDbEntity
  8
EBENE_1
100
AcDbSpline
210
0.0
220
0.0
230
1.0
 70
     1
 71
     3
 72
    20
 73
    16
 74
     0
 42
0.0000000001
 43
0.0000000001
 40
0.0
 40
0.0
 40
0.0
 40
0.0
 40
0.25
 40
0.25
 40
0.25
 40
0.25
 40
0.5
 40
0.5
 40
0.5
 40
0.5
 40
0.75
 40
0.75
 40
0.75
 40
0.75
 40
1.0
 40
1.0
 40
1.0
 40
1.0
 10
-140.2764
 20
-224.9264
 30
0.0
 10
-140.2764
 20
-224.9264
 30
0.0
 10
-159.25899999999999
 20
-254.33449999999999
 30
0.0
 10
-159.25899999999999
 20
-254.33449999999999
 30
0.0
 10
-159.25899999999999
 20
-254.33449999999999
 30
0.0
 10
-159.25899999999999
 20
-254.33449999999999
 30
0.0
 10
-165.98240000000001
 20
-249.9967
 30
0.0
 10
-165.98240000000001
 20
-249.9967
 30
0.0
 10
-165.98240000000001
 20
-249.9967
 30
0.0
 10
-165.98240000000001
 20
-249.9967
 30
0.0
 10
-147.0
 20
-220.58860000000001
 30
0.0
 10
-147.0
 20
-220.58860000000001
 30
0.0
 10
-147.0
 20
-220.58860000000001
 30
0.0
 10
-147.0
 20
-220.58860000000001
 30
0.0
 10
-140.2764
 20
-224.9264
 30
0.0
 10
-140.2764
 20
-224.9264
 30
0.0
  0
SPLINE
  5
76
100
AcDbEntity
  8
EBENE_1
100
AcDbSpline
210
0.0
220
0.0
230
1.0
 70
     1
 71
     3
 72
    20
 73
    16
 74
     0
 42
0.0000000001
 43
0.0000000001
 40
0.0
 40
0.0
 40
0.0
 40
0.0
 40
0.25
 40
0.25
 40
0.25
 40
0.25
 40
0.5
 40
0.5
 40
0.5
 40
0.5
 40
0.75
 40
0.75
 40
0.75
 40
0.75
 40
1.0
 40
1.0
 40
1.0
 40
1.0
 10
-197.41630000000001
 20
-176.87790000000001
 30
0.0
 10
-197.41630000000001
 20
-176.87790000000001
 30
0.0
 10
-223.84909999999999
 20
-199.82679999999999
 30
0.0
 10
-223.84909999999999
 20
-199.82679999999999
 30
0.0
 10
-223.84909999999999
 20
-199.82679999999999
 30
0.0
 10
-223.84909999999999
 20
-199.82679999999999
 30
0.0
 10
-229.0958
 20
-193.78649999999999
 30
0.0
 10
-229.0958
 20
-193.78649999999999
 30
0.0
 10
-229.0958
 20
-193.78649999999999
 30
0.0
 10
-229.0958
 20
-193.78649999999999
 30
0.0
 10
-202.66309999999999
 20
-170.83760000000001
 30
0.0
 10
-202.66309999999999
 20
-170.83760000000001
 30
0.0
 10
-202.66309999999999
 20
-170.83760000000001
 30
0.0
 10
-202.66309999999999
 20
-170.83760000000001
 30
0.0
 10
-197.41630000000001
 20
-176.87790000000001
 30
0.0
 10
-197.41630000000001
 20
-176.87790000000001
 30
0.0
  0
SPLINE
  5
77
100
AcDbEntity
  8
EBENE_1
100
AcDbSpline
210
0.0
220
0.0
230
1.0
 70
     1
 71
     3
 72
    20
 73
    16
 74
     0
 42
0.0000000001
 43
0.0000000001
 40
0.0
 40
0.0
 40
0.0
 40
0.0
 40
0.25
 40
0.25
 40
0.25
 40
0.25
 40
0.5
 40
0.5
 40
0.5
 40
0.5
 40
0.75
 40
0.75
 40
0.75
 40
0.75
 40
1.0
 40
1.0
 40
1.0
 40
1.0
 10
-170.20689999999999
 20
-203.20930000000001
 30
0.0
 10
-170.20689999999999
 20
-203.20930000000001
 30
0.0
 10
-193.09880000000001
 20
-229.68979999999999
 30
0.0
 10
-193.09880000000001
 20
-229.68979999999999
 30
0.0
 10
-193.09880000000001
 20
-229.68979999999999
 30
0.0
 10
-193.09880000000001
 20
-229.68979999999999
 30
0.0
 10
-199.15299999999999
 20
-224.45859999999999
 30
0.0
 10
-199.15299999999999
 20
-224.45859999999999
 30
0.0
 10
-199.15299999999999
 20
-224.45859999999999
 30
0.0
 10
-199.15299999999999
 20
-224.45859999999999
 30
0.0
 10
-176.2611
 20
-197.97810000000001
 30
0.0
 10
-176.2611
 20
-197.97810000000001
 30
0.0
 10
-176.2611
 20
-197.97810000000001
 30
0.0
 10
-176.2611
 20
-197.97810000000001
 30
0.0
 10
-170.20689999999999
 20
-203.20930000000001
 30
0.0
 10
-170.20689999999999
 20
-203.20930000000001
 30
0.0
  0
SPLINE
  5
78
100
AcDbEntity
  8
EBENE_1
 62
   251
100
AcDbSpline
210
0.0
220
0.0
230
1.0
 70
     1
 71
     3
 72
    20
 73
    16
 74
     0
 42
0.0000000001
 43
0.0000000001
 40
0.0
 40
0.0
 40
0.0
 40
0.0
 40
0.25
 40
0.25
 40
0.25
 40
0.25
 40
0.5
 40
0.5
 40
0.5
 40
0.5
 40
0.75
 40
0.75
 40
0.75
 40
0.75
 40
1.0
 40
1.0
 40
1.0
 40
1.0
 10
-240.09569999999999
 20
-138.749
 30
0.0
 10
-214.88339999999999
 20
-182.4074
 30
0.0
 10
-179.4435
 20
-216.61279999999999
 30
0.0
 10
-138.52289999999999
 20
-240.11259999999999
 30
0.0
 10
-138.52289999999999
 20
-240.11259999999999
 30
0.0
 10
-138.52289999999999
 20
-240.11259999999999
 30
0.0
 10
-134.52379999999999
 20
-233.1876
 30
0.0
 10
-134.52379999999999
 20
-233.1876
 30
0.0
 10
-134.52379999999999
 20
-233.1876
 30
0.0
 10
-174.26349999999999
 20
-210.36590000000001
 30
0.0
 10
-208.68100000000001
 20
-177.14769999999999
 30
0.0
 10
-233.16579999999999
 20
-134.749
 30
0.0
 10
-233.16579999999999
 20
-134.749
 30
0.0
 10
-233.16579999999999
 20
-134.749
 30
0.0
 10
-240.09569999999999
 20
-138.749
 30
0.0
 10
-240.09569999999999
 20
-138.749
 30
0.0
  0
SPLINE
  5
79
100
AcDbEntity
  8
EBENE_1
100
AcDbSpline
210
0.0
220
0.0
230
1.0
 70
     1
 71
     3
 72
    20
 73
    16
 74
     0
 42
0.0000000001
 43
0.0000000001
 40
0.0
 40
0.0
 40
0.0
 40
0.0
 40
0.25
 40
0.25
 40
0.25
 40
0.25
 40
0.5
 40
0.5
 40
0.5
 40
0.5
 40
0.75
 40
0.75
 40
0.75
 40
0.75
 40
1.0
 40
1.0
 40
1.0
 40
1.0
 10
-237.49700000000001
 20
-137.249
 30
0.0
 10
-212.5574
 20
-180.435
 30
0.0
 10
-177.5009
 20
-214.27019999999999
 30
0.0
 10
-137.0232
 20
-237.51570000000001
 30
0.0
 10
-137.0232
 20
-237.51570000000001
 30
0.0
 10
-137.0232
 20
-237.51570000000001
 30
0.0
 10
-136.02350000000001
 20
-235.78450000000001
 30
0.0
 10
-136.02350000000001
 20
-235.78450000000001
 30
0.0
 10
-136.02350000000001
 20
-235.78450000000001
 30
0.0
 10
-176.20599999999999
 20
-212.70859999999999
 30
0.0
 10
-211.0069
 20
-179.12010000000001
 30
0.0
 10
-235.7645
 20
-136.249
 30
0.0
 10
-235.7645
 20
-136.249
 30
0.0
 10
-235.7645
 20
-136.249
 30
0.0
 10
-237.49700000000001
 20
-137.249
 30
0.0
 10
-237.49700000000001
 20
-137.249
 30
0.0
  0
SPLINE
  5
7A
100
AcDbEntity
  8
EBENE_1
 62
   251
100
AcDbSpline
210
0.0
220
0.0
230
1.0
 70
     1
 71
     3
 72
    20
 73
    16
 74
     0
 42
0.0000000001
 43
0.0000000001
 40
0.0
 40
0.0
 40
0.0
 40
0.0
 40
0.25
 40
0.25
 40
0.25
 40
0.25
 40
0.5
 40
0.5
 40
0.5
 40
0.5
 40
0.75
 40
0.75
 40
0.75
 40
0.75
 40
1.0
 40
1.0
 40
1.0
 40
1.0
 10
-256.12099999999998
 20
-147.999
 30
0.0
 10
-229.22640000000001
 20
-194.57060000000001
 30
0.0
 10
-191.42160000000001
 20
-231.05850000000001
 30
0.0
 10
-147.7706
 20
-256.12619999999998
 30
0.0
 10
-147.7706
 20
-256.12619999999998
 30
0.0
 10
-147.7706
 20
-256.12619999999998
 30
0.0
 10
-143.7715
 20
-249.2013
 30
0.0
 10
-143.7715
 20
-249.2013
 30
0.0
 10
-143.7715
 20
-249.2013
 30
0.0
 10
-186.24180000000001
 20
-224.8116
 30
0.0
 10
-223.024
 20
-189.3109
 30
0.0
 10
-249.19110000000001
 20
-143.999
 30
0.0
 10
-249.19110000000001
 20
-143.999
 30
0.0
 10
-249.19110000000001
 20
-143.999
 30
0.0
 10
-256.12099999999998
 20
-147.999
 30
0.0
 10
-256.12099999999998
 20
-147.999
 30
0.0
  0
SPLINE
  5
7B
100
AcDbEntity
  8
EBENE_1
100
AcDbSpline
210
0.0
220
0.0
230
1.0
 70
     1
 71
     3
 72
    20
 73
    16
 74
     0
 42
0.0000000001
 43
0.0000000001
 40
0.0
 40
0.0
 40
0.0
 40
0.0
 40
0.25
 40
0.25
 40
0.25
 40
0.25
 40
0.5
 40
0.5
 40
0.5
 40
0.5
 40
0.75
 40
0.75
 40
0.75
 40
0.75
 40
1.0
 40
1.0
 40
1.0
 40
1.0
 10
-251.78989999999999
 20
-145.499
 30
0.0
 10
-225.34979999999999
 20
-191.2833
 30
0.0
 10
-188.18440000000001
 20
-227.1542
 30
0.0
 10
-145.2713
 20
-251.79820000000001
 30
0.0
 10
-145.2713
 20
-251.79820000000001
 30
0.0
 10
-145.2713
 20
-251.79820000000001
 30
0.0
 10
-146.27099999999999
 20
-253.52940000000001
 30
0.0
 10
-146.27099999999999
 20
-253.52940000000001
 30
0.0
 10
-146.27099999999999
 20
-253.52940000000001
 30
0.0
 10
-189.47929999999999
 20
-228.7158
 30
0.0
 10
-226.90049999999999
 20
-192.59819999999999
 30
0.0
 10
-253.5224
 20
-146.499
 30
0.0
 10
-253.5224
 20
-146.499
 30
0.0
 10
-253.5224
 20
-146.499
 30
0.0
 10
-251.78989999999999
 20
-145.499
 30
0.0
 10
-251.78989999999999
 20
-145.499
 30
0.0
  0
SPLINE
  5
7C
100
AcDbEntity
  8
EBENE_1
100
AcDbSpline
210
0.0
220
0.0
230
1.0
 70
     0
 71
     3
 72
     8
 73
     4
 74
     0
 42
0.0000000001
 43
0.0000000001
 40
0.0
 40
0.0
 40
0.0
 40
0.0
 40
1.0
 40
1.0
 40
1.0
 40
1.0
 10
-244.63489999999999
 20
-141.38749999999999
 30
0.0
 10
-218.9452
 20
-185.87270000000001
 30
0.0
 10
-182.83420000000001
 20
-220.72569999999999
 30
0.0
 10
-141.1387
 20
-244.6705
 30
0.0
  0
SPLINE
  5
7D
100
AcDbEntity
  8
EBENE_1
 62
   252
100
AcDbSpline
210
0.0
220
0.0
230
1.0
 70
     1
 71
     3
 72
    20
 73
    16
 74
     0
 42
0.0000000001
 43
0.0000000001
 40
0.0
 40
0.0
 40
0.0
 40
0.0
 40
0.25
 40
0.25
 40
0.25
 40
0.25
 40
0.5
 40
0.5
 40
0.5
 40
0.5
 40
0.75
 40
0.75
 40
0.75
 40
0.75
 40
1.0
 40
1.0
 40
1.0
 40
1.0
 10
-157.7116
 20
-273.36849999999998
 30
0.0
 10
-108.01779999999999
 20
-302.0523
 30
0.0
 10
-53.624699999999997
 20
-315.60219999999998
 30
0.0
 10
0.0768
 20
-315.48379999999997
 30
0.0
 10
0.0768
 20
-315.48379999999997
 30
0.0
 10
0.0768
 20
-315.48379999999997
 30
0.0
 10
0.0097
 20
-249.31110000000001
 30
0.0
 10
0.0097
 20
-249.31110000000001
 30
0.0
 10
0.0097
 20
-249.31110000000001
 30
0.0
 10
-42.968600000000002
 20
-249.4058
 30
0.0
 10
-84.8078
 20
-238.95060000000001
 30
0.0
 10
-124.57859999999999
 20
-215.99449999999999
 30
0.0
 10
-124.57859999999999
 20
-215.99449999999999
 30
0.0
 10
-124.57859999999999
 20
-215.99449999999999
 30
0.0
 10
-157.7116
 20
-273.36849999999998
 30
0.0
 10
-157.7116
 20
-273.36849999999998
 30
0.0
  0
SPLINE
  5
7E
100
AcDbEntity
  8
EBENE_1
 62
   253
100
AcDbSpline
210
0.0
220
0.0
230
1.0
 70
     1
 71
     3
 72
    20
 73
    16
 74
     0
 42
0.0000000001
 43
0.0000000001
 40
0.0
 40
0.0
 40
0.0
 40
0.0
 40
0.25
 40
0.25
 40
0.25
 40
0.25
 40
0.5
 40
0.5
 40
0.5
 40
0.5
 40
0.75
 40
0.75
 40
0.75
 40
0.75
 40
1.0
 40
1.0
 40
1.0
 40
1.0
 10
-152.18770000000001
 20
-263.80329999999998
 30
0.0
 10
-102.4939
 20
-292.48700000000002
 30
0.0
 10
-53.6449
 20
-304.34249999999997
 30
0.0
 10
0.0567
 20
-304.2242
 30
0.0
 10
0.0567
 20
-304.2242
 30
0.0
 10
0.0567
 20
-304.2242
 30
0.0
 10
-0.0402
 20
-261.67559999999997
 30
0.0
 10
-0.0402
 20
-261.67559999999997
 30
0.0
 10
-0.0402
 20
-261.67559999999997
 30
0.0
 10
-43.018500000000003
 20
-261.77019999999999
 30
0.0
 10
-90.6631
 20
-249.0898
 30
0.0
 10
-130.43389999999999
 20
-226.1337
 30
0.0
 10
-130.43389999999999
 20
-226.1337
 30
0.0
 10
-130.43389999999999
 20
-226.1337
 30
0.0
 10
-152.18770000000001
 20
-263.80329999999998
 30
0.0
 10
-152.18770000000001
 20
-263.80329999999998
 30
0.0
  0
SPLINE
  5
7F
100
AcDbEntity
  8
EBENE_1
100
AcDbSpline
210
0.0
220
0.0
230
1.0
 70
     1
 71
     3
 72
    20
 73
    16
 74
     0
 42
0.0000000001
 43
0.0000000001
 40
0.0
 40
0.0
 40
0.0
 40
0.0
 40
0.25
 40
0.25
 40
0.25
 40
0.25
 40
0.5
 40
0.5
 40
0.5
 40
0.5
 40
0.75
 40
0.75
 40
0.75
 40
0.75
 40
1.0
 40
1.0
 40
1.0
 40
1.0
 10
-117.6981
 20
-237.53749999999999
 30
0.0
 10
-117.6981
 20
-237.53749999999999
 30
0.0
 10
-133.72329999999999
 20
-268.65530000000001
 30
0.0
 10
-133.72329999999999
 20
-268.65530000000001
 30
0.0
 10
-133.72329999999999
 20
-268.65530000000001
 30
0.0
 10
-133.72329999999999
 20
-268.65530000000001
 30
0.0
 10
-140.83779999999999
 20
-264.99329999999998
 30
0.0
 10
-140.83779999999999
 20
-264.99329999999998
 30
0.0
 10
-140.83779999999999
 20
-264.99329999999998
 30
0.0
 10
-140.83779999999999
 20
-264.99329999999998
 30
0.0
 10
-124.8126
 20
-233.87540000000001
 30
0.0
 10
-124.8126
 20
-233.87540000000001
 30
0.0
 10
-124.8126
 20
-233.87540000000001
 30
0.0
 10
-124.8126
 20
-233.87540000000001
 30
0.0
 10
-117.6981
 20
-237.53749999999999
 30
0.0
 10
-117.6981
 20
-237.53749999999999
 30
0.0
  0
SPLINE
  5
80
100
AcDbEntity
  8
EBENE_1
100
AcDbSpline
210
0.0
220
0.0
230
1.0
 70
     1
 71
     3
 72
    20
 73
    16
 74
     0
 42
0.0000000001
 43
0.0000000001
 40
0.0
 40
0.0
 40
0.0
 40
0.0
 40
0.25
 40
0.25
 40
0.25
 40
0.25
 40
0.5
 40
0.5
 40
0.5
 40
0.5
 40
0.75
 40
0.75
 40
0.75
 40
0.75
 40
1.0
 40
1.0
 40
1.0
 40
1.0
 10
-9.0508000000000006
 20
-264.9699
 30
0.0
 10
-9.0508000000000006
 20
-264.9699
 30
0.0
 10
-10.782500000000001
 20
-299.9271
 30
0.0
 10
-10.782500000000001
 20
-299.9271
 30
0.0
 10
-10.782500000000001
 20
-299.9271
 30
0.0
 10
-10.782500000000001
 20
-299.9271
 30
0.0
 10
-18.774699999999999
 20
-299.53140000000002
 30
0.0
 10
-18.774699999999999
 20
-299.53140000000002
 30
0.0
 10
-18.774699999999999
 20
-299.53140000000002
 30
0.0
 10
-18.774699999999999
 20
-299.53140000000002
 30
0.0
 10
-17.042899999999999
 20
-264.57420000000002
 30
0.0
 10
-17.042899999999999
 20
-264.57420000000002
 30
0.0
 10
-17.042899999999999
 20
-264.57420000000002
 30
0.0
 10
-17.042899999999999
 20
-264.57420000000002
 30
0.0
 10
-9.0508000000000006
 20
-264.9699
 30
0.0
 10
-9.0508000000000006
 20
-264.9699
 30
0.0
  0
SPLINE
  5
81
100
AcDbEntity
  8
EBENE_1
100
AcDbSpline
210
0.0
220
0.0
230
1.0
 70
     1
 71
     3
 72
    20
 73
    16
 74
     0
 42
0.0000000001
 43
0.0000000001
 40
0.0
 40
0.0
 40
0.0
 40
0.0
 40
0.25
 40
0.25
 40
0.25
 40
0.25
 40
0.5
 40
0.5
 40
0.5
 40
0.5
 40
0.75
 40
0.75
 40
0.75
 40
0.75
 40
1.0
 40
1.0
 40
1.0
 40
1.0
 10
-82.5655
 20
-251.92179999999999
 30
0.0
 10
-82.5655
 20
-251.92179999999999
 30
0.0
 10
-93.979699999999994
 20
-285.00920000000002
 30
0.0
 10
-93.979699999999994
 20
-285.00920000000002
 30
0.0
 10
-93.979699999999994
 20
-285.00920000000002
 30
0.0
 10
-93.979699999999994
 20
-285.00920000000002
 30
0.0
 10
-101.54430000000001
 20
-282.40089999999998
 30
0.0
 10
-101.54430000000001
 20
-282.40089999999998
 30
0.0
 10
-101.54430000000001
 20
-282.40089999999998
 30
0.0
 10
-101.54430000000001
 20
-282.40089999999998
 30
0.0
 10
-90.130200000000002
 20
-249.3134
 30
0.0
 10
-90.130200000000002
 20
-249.3134
 30
0.0
 10
-90.130200000000002
 20
-249.3134
 30
0.0
 10
-90.130200000000002
 20
-249.3134
 30
0.0
 10
-82.5655
 20
-251.92179999999999
 30
0.0
 10
-82.5655
 20
-251.92179999999999
 30
0.0
  0
SPLINE
  5
82
100
AcDbEntity
  8
EBENE_1
100
AcDbSpline
210
0.0
220
0.0
230
1.0
 70
     1
 71
     3
 72
    20
 73
    16
 74
     0
 42
0.0000000001
 43
0.0000000001
 40
0.0
 40
0.0
 40
0.0
 40
0.0
 40
0.25
 40
0.25
 40
0.25
 40
0.25
 40
0.5
 40
0.5
 40
0.5
 40
0.5
 40
0.75
 40
0.75
 40
0.75
 40
0.75
 40
1.0
 40
1.0
 40
1.0
 40
1.0
 10
-45.832599999999999
 20
-261.12400000000002
 30
0.0
 10
-45.832599999999999
 20
-261.12400000000002
 30
0.0
 10
-52.414099999999998
 20
-295.49990000000003
 30
0.0
 10
-52.414099999999998
 20
-295.49990000000003
 30
0.0
 10
-52.414099999999998
 20
-295.49990000000003
 30
0.0
 10
-52.414099999999998
 20
-295.49990000000003
 30
0.0
 10
-60.273299999999999
 20
-293.99590000000001
 30
0.0
 10
-60.273299999999999
 20
-293.99590000000001
 30
0.0
 10
-60.273299999999999
 20
-293.99590000000001
 30
0.0
 10
-60.273299999999999
 20
-293.99590000000001
 30
0.0
 10
-53.691899999999997
 20
-259.62
 30
0.0
 10
-53.691899999999997
 20
-259.62
 30
0.0
 10
-53.691899999999997
 20
-259.62
 30
0.0
 10
-53.691899999999997
 20
-259.62
 30
0.0
 10
-45.832599999999999
 20
-261.12400000000002
 30
0.0
 10
-45.832599999999999
 20
-261.12400000000002
 30
0.0
  0
SPLINE
  5
83
100
AcDbEntity
  8
EBENE_1
 62
   251
100
AcDbSpline
210
0.0
220
0.0
230
1.0
 70
     1
 71
     3
 72
    20
 73
    16
 74
     0
 42
0.0000000001
 43
0.0000000001
 40
0.0
 40
0.0
 40
0.0
 40
0.0
 40
0.25
 40
0.25
 40
0.25
 40
0.25
 40
0.5
 40
0.5
 40
0.5
 40
0.5
 40
0.75
 40
0.75
 40
0.75
 40
0.75
 40
1.0
 40
1.0
 40
1.0
 40
1.0
 10
-138.596
 20
-240.23560000000001
 30
0.0
 10
-94.927000000000007
 20
-265.4418
 30
0.0
 10
-47.128300000000003
 20
-277.34890000000001
 30
0.0
 10
0.0627
 20
-277.24509999999998
 30
0.0
 10
0.0627
 20
-277.24509999999998
 30
0.0
 10
0.0627
 20
-277.24509999999998
 30
0.0
 10
0.0627
 20
-269.24869999999999
 30
0.0
 10
0.0627
 20
-269.24869999999999
 30
0.0
 10
0.0627
 20
-269.24869999999999
 30
0.0
 10
-45.766500000000001
 20
-269.34960000000001
 30
0.0
 10
-92.186000000000007
 20
-257.78629999999998
 30
0.0
 10
-134.5951
 20
-233.3074
 30
0.0
 10
-134.5951
 20
-233.3074
 30
0.0
 10
-134.5951
 20
-233.3074
 30
0.0
 10
-138.596
 20
-240.23560000000001
 30
0.0
 10
-138.596
 20
-240.23560000000001
 30
0.0
  0
SPLINE
  5
84
100
AcDbEntity
  8
EBENE_1
100
AcDbSpline
210
0.0
220
0.0
230
1.0
 70
     1
 71
     3
 72
    20
 73
    16
 74
     0
 42
0.0000000001
 43
0.0000000001
 40
0.0
 40
0.0
 40
0.0
 40
0.0
 40
0.25
 40
0.25
 40
0.25
 40
0.25
 40
0.5
 40
0.5
 40
0.5
 40
0.5
 40
0.75
 40
0.75
 40
0.75
 40
0.75
 40
1.0
 40
1.0
 40
1.0
 40
1.0
 10
-137.09569999999999
 20
-237.63759999999999
 30
0.0
 10
-93.899199999999993
 20
-262.57100000000003
 30
0.0
 10
-46.617400000000004
 20
-274.34910000000002
 30
0.0
 10
0.0628
 20
-274.24639999999999
 30
0.0
 10
0.0628
 20
-274.24639999999999
 30
0.0
 10
0.0628
 20
-274.24639999999999
 30
0.0
 10
0.0628
 20
-272.24740000000003
 30
0.0
 10
0.0628
 20
-272.24740000000003
 30
0.0
 10
0.0628
 20
-272.24740000000003
 30
0.0
 10
-46.277099999999997
 20
-272.34949999999998
 30
0.0
 10
-93.213899999999995
 20
-260.65719999999999
 30
0.0
 10
-136.09540000000001
 20
-235.90549999999999
 30
0.0
 10
-136.09540000000001
 20
-235.90549999999999
 30
0.0
 10
-136.09540000000001
 20
-235.90549999999999
 30
0.0
 10
-137.09569999999999
 20
-237.63759999999999
 30
0.0
 10
-137.09569999999999
 20
-237.63759999999999
 30
0.0
  0
SPLINE
  5
85
100
AcDbEntity
  8
EBENE_1
 62
   251
100
AcDbSpline
210
0.0
220
0.0
230
1.0
 70
     1
 71
     3
 72
    20
 73
    16
 74
     0
 42
0.0000000001
 43
0.0000000001
 40
0.0
 40
0.0
 40
0.0
 40
0.0
 40
0.25
 40
0.25
 40
0.25
 40
0.25
 40
0.5
 40
0.5
 40
0.5
 40
0.5
 40
0.75
 40
0.75
 40
0.75
 40
0.75
 40
1.0
 40
1.0
 40
1.0
 40
1.0
 10
-147.84829999999999
 20
-256.25709999999998
 30
0.0
 10
-101.26519999999999
 20
-283.14530000000002
 30
0.0
 10
-50.277000000000001
 20
-295.84690000000001
 30
0.0
 10
0.0628
 20
-295.73599999999999
 30
0.0
 10
0.0628
 20
-295.73599999999999
 30
0.0
 10
0.0628
 20
-295.73599999999999
 30
0.0
 10
0.0628
 20
-287.7398
 30
0.0
 10
0.0628
 20
-287.7398
 30
0.0
 10
0.0628
 20
-287.7398
 30
0.0
 10
-48.915399999999998
 20
-287.8476
 30
0.0
 10
-98.5244
 20
-275.4898
 30
0.0
 10
-143.84729999999999
 20
-249.3289
 30
0.0
 10
-143.84729999999999
 20
-249.3289
 30
0.0
 10
-143.84729999999999
 20
-249.3289
 30
0.0
 10
-147.84829999999999
 20
-256.25709999999998
 30
0.0
 10
-147.84829999999999
 20
-256.25709999999998
 30
0.0
  0
SPLINE
  5
86
100
AcDbEntity
  8
EBENE_1
100
AcDbSpline
210
0.0
220
0.0
230
1.0
 70
     1
 71
     3
 72
    20
 73
    16
 74
     0
 42
0.0000000001
 43
0.0000000001
 40
0.0
 40
0.0
 40
0.0
 40
0.0
 40
0.25
 40
0.25
 40
0.25
 40
0.25
 40
0.5
 40
0.5
 40
0.5
 40
0.5
 40
0.75
 40
0.75
 40
0.75
 40
0.75
 40
1.0
 40
1.0
 40
1.0
 40
1.0
 10
-145.3477
 20
-251.92699999999999
 30
0.0
 10
-99.552099999999996
 20
-278.36059999999998
 30
0.0
 10
-49.426099999999998
 20
-290.84739999999999
 30
0.0
 10
0.0628
 20
-290.73840000000001
 30
0.0
 10
0.0628
 20
-290.73840000000001
 30
0.0
 10
0.0628
 20
-290.73840000000001
 30
0.0
 10
0.0627
 20
-292.73750000000001
 30
0.0
 10
0.0627
 20
-292.73750000000001
 30
0.0
 10
0.0627
 20
-292.73750000000001
 30
0.0
 10
-49.766500000000001
 20
-292.84719999999999
 30
0.0
 10
-100.2375
 20
-280.27440000000001
 30
0.0
 10
-146.34790000000001
 20
-253.65899999999999
 30
0.0
 10
-146.34790000000001
 20
-253.65899999999999
 30
0.0
 10
-146.34790000000001
 20
-253.65899999999999
 30
0.0
 10
-145.3477
 20
-251.92699999999999
 30
0.0
 10
-145.3477
 20
-251.92699999999999
 30
0.0
  0
SPLINE
  5
87
100
AcDbEntity
  8
EBENE_1
100
AcDbSpline
210
0.0
220
0.0
230
1.0
 70
     0
 71
     3
 72
     8
 73
     4
 74
     0
 42
0.0000000001
 43
0.0000000001
 40
0.0
 40
0.0
 40
0.0
 40
0.0
 40
1.0
 40
1.0
 40
1.0
 40
1.0
 10
-141.20760000000001
 20
-244.78970000000001
 30
0.0
 10
-96.711500000000001
 20
-270.47320000000002
 30
0.0
 10
-48.007800000000003
 20
-282.60579999999999
 30
0.0
 10
0.0768
 20
-282.49990000000003
 30
0.0
  0
SPLINE
  5
88
100
AcDbEntity
  8
EBENE_1
 62
   252
100
AcDbSpline
210
0.0
220
0.0
230
1.0
 70
     1
 71
     3
 72
    20
 73
    16
 74
     0
 42
0.0000000001
 43
0.0000000001
 40
0.0
 40
0.0
 40
0.0
 40
0.0
 40
0.25
 40
0.25
 40
0.25
 40
0.25
 40
0.5
 40
0.5
 40
0.5
 40
0.5
 40
0.75
 40
0.75
 40
0.75
 40
0.75
 40
1.0
 40
1.0
 40
1.0
 40
1.0
 10
0.0768
 20
-315.49990000000003
 30
0.0
 10
57.458300000000001
 20
-315.49990000000003
 30
0.0
 10
111.3407
 20
-300.04450000000003
 30
0.0
 10
157.7884
 20
-273.09780000000001
 30
0.0
 10
157.7884
 20
-273.09780000000001
 30
0.0
 10
157.7884
 20
-273.09780000000001
 30
0.0
 10
124.6358
 20
-215.82409999999999
 30
0.0
 10
124.6358
 20
-215.82409999999999
 30
0.0
 10
124.6358
 20
-215.82409999999999
 30
0.0
 10
87.462900000000005
 20
-237.38999999999999
 30
0.0
 10
46.0002
 20
-249.2501
 30
0.0
 10
0.0768
 20
-249.2501
 30
0.0
 10
0.0768
 20
-249.2501
 30
0.0
 10
0.0768
 20
-249.2501
 30
0.0
 10
0.0768
 20
-315.49990000000003
 30
0.0
 10
0.0768
 20
-315.49990000000003
 30
0.0
  0
SPLINE
  5
89
100
AcDbEntity
  8
EBENE_1
 62
   253
100
AcDbSpline
210
0.0
220
0.0
230
1.0
 70
     1
 71
     3
 72
    20
 73
    16
 74
     0
 42
0.0000000001
 43
0.0000000001
 40
0.0
 40
0.0
 40
0.0
 40
0.0
 40
0.25
 40
0.25
 40
0.25
 40
0.25
 40
0.5
 40
0.5
 40
0.5
 40
0.5
 40
0.75
 40
0.75
 40
0.75
 40
0.75
 40
1.0
 40
1.0
 40
1.0
 40
1.0
 10
0.0768
 20
-304.45490000000001
 30
0.0
 10
57.458300000000001
 20
-304.45490000000001
 30
0.0
 10
105.69199999999999
 20
-290.30340000000001
 30
0.0
 10
152.1397
 20
-263.35669999999999
 30
0.0
 10
152.1397
 20
-263.35669999999999
 30
0.0
 10
152.1397
 20
-263.35669999999999
 30
0.0
 10
130.77629999999999
 20
-226.55699999999999
 30
0.0
 10
130.77629999999999
 20
-226.55699999999999
 30
0.0
 10
130.77629999999999
 20
-226.55699999999999
 30
0.0
 10
93.603399999999993
 20
-248.12289999999999
 30
0.0
 10
46.0002
 20
-260.95780000000002
 30
0.0
 10
0.0768
 20
-260.95780000000002
 30
0.0
 10
0.0768
 20
-260.95780000000002
 30
0.0
 10
0.0768
 20
-260.95780000000002
 30
0.0
 10
0.0768
 20
-304.45490000000001
 30
0.0
 10
0.0768
 20
-304.45490000000001
 30
0.0
  0
SPLINE
  5
8A
100
AcDbEntity
  8
EBENE_1
100
AcDbSpline
210
0.0
220
0.0
230
1.0
 70
     1
 71
     3
 72
    20
 73
    16
 74
     0
 42
0.0000000001
 43
0.0000000001
 40
0.0
 40
0.0
 40
0.0
 40
0.0
 40
0.25
 40
0.25
 40
0.25
 40
0.25
 40
0.5
 40
0.5
 40
0.5
 40
0.5
 40
0.75
 40
0.75
 40
0.75
 40
0.75
 40
1.0
 40
1.0
 40
1.0
 40
1.0
 10
16.8096
 20
-264.4674
 30
0.0
 10
16.8096
 20
-264.4674
 30
0.0
 10
18.494
 20
-299.42689999999999
 30
0.0
 10
18.494
 20
-299.42689999999999
 30
0.0
 10
18.494
 20
-299.42689999999999
 30
0.0
 10
18.494
 20
-299.42689999999999
 30
0.0
 10
10.5014
 20
-299.81180000000001
 30
0.0
 10
10.5014
 20
-299.81180000000001
 30
0.0
 10
10.5014
 20
-299.81180000000001
 30
0.0
 10
10.5014
 20
-299.81180000000001
 30
0.0
 10
8.8168000000000006
 20
-264.85239999999999
 30
0.0
 10
8.8168000000000006
 20
-264.85239999999999
 30
0.0
 10
8.8168000000000006
 20
-264.85239999999999
 30
0.0
 10
8.8168000000000006
 20
-264.85239999999999
 30
0.0
 10
16.8096
 20
-264.4674
 30
0.0
 10
16.8096
 20
-264.4674
 30
0.0
  0
SPLINE
  5
8B
100
AcDbEntity
  8
EBENE_1
100
AcDbSpline
210
0.0
220
0.0
230
1.0
 70
     1
 71
     3
 72
    20
 73
    16
 74
     0
 42
0.0000000001
 43
0.0000000001
 40
0.0
 40
0.0
 40
0.0
 40
0.0
 40
0.25
 40
0.25
 40
0.25
 40
0.25
 40
0.5
 40
0.5
 40
0.5
 40
0.5
 40
0.75
 40
0.75
 40
0.75
 40
0.75
 40
1.0
 40
1.0
 40
1.0
 40
1.0
 10
124.62050000000001
 20
-233.91419999999999
 30
0.0
 10
124.62050000000001
 20
-233.91419999999999
 30
0.0
 10
140.6037
 20
-265.05360000000002
 30
0.0
 10
140.6037
 20
-265.05360000000002
 30
0.0
 10
140.6037
 20
-265.05360000000002
 30
0.0
 10
140.6037
 20
-265.05360000000002
 30
0.0
 10
133.48439999999999
 20
-268.70600000000002
 30
0.0
 10
133.48439999999999
 20
-268.70600000000002
 30
0.0
 10
133.48439999999999
 20
-268.70600000000002
 30
0.0
 10
133.48439999999999
 20
-268.70600000000002
 30
0.0
 10
117.5012
 20
-237.56659999999999
 30
0.0
 10
117.5012
 20
-237.56659999999999
 30
0.0
 10
117.5012
 20
-237.56659999999999
 30
0.0
 10
117.5012
 20
-237.56659999999999
 30
0.0
 10
124.62050000000001
 20
-233.91419999999999
 30
0.0
 10
124.62050000000001
 20
-233.91419999999999
 30
0.0
  0
SPLINE
  5
8C
100
AcDbEntity
  8
EBENE_1
100
AcDbSpline
210
0.0
220
0.0
230
1.0
 70
     1
 71
     3
 72
    20
 73
    16
 74
     0
 42
0.0000000001
 43
0.0000000001
 40
0.0
 40
0.0
 40
0.0
 40
0.0
 40
0.25
 40
0.25
 40
0.25
 40
0.25
 40
0.5
 40
0.5
 40
0.5
 40
0.5
 40
0.75
 40
0.75
 40
0.75
 40
0.75
 40
1.0
 40
1.0
 40
1.0
 40
1.0
 10
54.429200000000002
 20
-259.36259999999999
 30
0.0
 10
54.429200000000002
 20
-259.36259999999999
 30
0.0
 10
61.092100000000002
 20
-293.72280000000001
 30
0.0
 10
61.092100000000002
 20
-293.72280000000001
 30
0.0
 10
61.092100000000002
 20
-293.72280000000001
 30
0.0
 10
61.092100000000002
 20
-293.72280000000001
 30
0.0
 10
53.236400000000003
 20
-295.24540000000002
 30
0.0
 10
53.236400000000003
 20
-295.24540000000002
 30
0.0
 10
53.236400000000003
 20
-295.24540000000002
 30
0.0
 10
53.236400000000003
 20
-295.24540000000002
 30
0.0
 10
46.573500000000003
 20
-260.88510000000002
 30
0.0
 10
46.573500000000003
 20
-260.88510000000002
 30
0.0
 10
46.573500000000003
 20
-260.88510000000002
 30
0.0
 10
46.573500000000003
 20
-260.88510000000002
 30
0.0
 10
54.429200000000002
 20
-259.36259999999999
 30
0.0
 10
54.429200000000002
 20
-259.36259999999999
 30
0.0
  0
SPLINE
  5
8D
100
AcDbEntity
  8
EBENE_1
100
AcDbSpline
210
0.0
220
0.0
230
1.0
 70
     1
 71
     3
 72
    20
 73
    16
 74
     0
 42
0.0000000001
 43
0.0000000001
 40
0.0
 40
0.0
 40
0.0
 40
0.0
 40
0.25
 40
0.25
 40
0.25
 40
0.25
 40
0.5
 40
0.5
 40
0.5
 40
0.5
 40
0.75
 40
0.75
 40
0.75
 40
0.75
 40
1.0
 40
1.0
 40
1.0
 40
1.0
 10
90.843100000000007
 20
-248.9699
 30
0.0
 10
90.843100000000007
 20
-248.9699
 30
0.0
 10
102.3355
 20
-282.03030000000001
 30
0.0
 10
102.3355
 20
-282.03030000000001
 30
0.0
 10
102.3355
 20
-282.03030000000001
 30
0.0
 10
102.3355
 20
-282.03030000000001
 30
0.0
 10
94.777100000000004
 20
-284.65649999999999
 30
0.0
 10
94.777100000000004
 20
-284.65649999999999
 30
0.0
 10
94.777100000000004
 20
-284.65649999999999
 30
0.0
 10
94.777100000000004
 20
-284.65649999999999
 30
0.0
 10
83.284700000000001
 20
-251.59610000000001
 30
0.0
 10
83.284700000000001
 20
-251.59610000000001
 30
0.0
 10
83.284700000000001
 20
-251.59610000000001
 30
0.0
 10
83.284700000000001
 20
-251.59610000000001
 30
0.0
 10
90.843100000000007
 20
-248.9699
 30
0.0
 10
90.843100000000007
 20
-248.9699
 30
0.0
  0
SPLINE
  5
8E
100
AcDbEntity
  8
EBENE_1
 62
   251
100
AcDbSpline
210
0.0
220
0.0
230
1.0
 70
     1
 71
     3
 72
    20
 73
    16
 74
     0
 42
0.0000000001
 43
0.0000000001
 40
0.0
 40
0.0
 40
0.0
 40
0.0
 40
0.25
 40
0.25
 40
0.25
 40
0.25
 40
0.5
 40
0.5
 40
0.5
 40
0.5
 40
0.75
 40
0.75
 40
0.75
 40
0.75
 40
1.0
 40
1.0
 40
1.0
 40
1.0
 10
0.0609
 20
-277.25049999999999
 30
0.0
 10
50.485599999999998
 20
-277.25049999999999
 30
0.0
 10
97.835499999999996
 20
-263.66879999999998
 30
0.0
 10
138.65209999999999
 20
-239.98910000000001
 30
0.0
 10
138.65209999999999
 20
-239.98910000000001
 30
0.0
 10
138.65209999999999
 20
-239.98910000000001
 30
0.0
 10
134.65299999999999
 20
-233.0641
 30
0.0
 10
134.65299999999999
 20
-233.0641
 30
0.0
 10
134.65299999999999
 20
-233.0641
 30
0.0
 10
95.014099999999999
 20
-256.06049999999999
 30
0.0
 10
49.0306
 20
-269.25049999999999
 30
0.0
 10
0.0609
 20
-269.25049999999999
 30
0.0
 10
0.0609
 20
-269.25049999999999
 30
0.0
 10
0.0609
 20
-269.25049999999999
 30
0.0
 10
0.0609
 20
-277.25049999999999
 30
0.0
 10
0.0609
 20
-277.25049999999999
 30
0.0
  0
SPLINE
  5
8F
100
AcDbEntity
  8
EBENE_1
100
AcDbSpline
210
0.0
220
0.0
230
1.0
 70
     1
 71
     3
 72
    20
 73
    16
 74
     0
 42
0.0000000001
 43
0.0000000001
 40
0.0
 40
0.0
 40
0.0
 40
0.0
 40
0.25
 40
0.25
 40
0.25
 40
0.25
 40
0.5
 40
0.5
 40
0.5
 40
0.5
 40
0.75
 40
0.75
 40
0.75
 40
0.75
 40
1.0
 40
1.0
 40
1.0
 40
1.0
 10
0.0609
 20
-274.25049999999999
 30
0.0
 10
49.939999999999998
 20
-274.25049999999999
 30
0.0
 10
96.777600000000007
 20
-260.81560000000002
 30
0.0
 10
137.1525
 20
-237.3922
 30
0.0
 10
137.1525
 20
-237.3922
 30
0.0
 10
137.1525
 20
-237.3922
 30
0.0
 10
136.15270000000001
 20
-235.661
 30
0.0
 10
136.15270000000001
 20
-235.661
 30
0.0
 10
136.15270000000001
 20
-235.661
 30
0.0
 10
96.072299999999998
 20
-258.91370000000001
 30
0.0
 10
49.576300000000003
 20
-272.25049999999999
 30
0.0
 10
0.0609
 20
-272.25049999999999
 30
0.0
 10
0.0609
 20
-272.25049999999999
 30
0.0
 10
0.0609
 20
-272.25049999999999
 30
0.0
 10
0.0609
 20
-274.25049999999999
 30
0.0
 10
0.0609
 20
-274.25049999999999
 30
0.0
  0
SPLINE
  5
90
100
AcDbEntity
  8
EBENE_1
 62
   251
100
AcDbSpline
210
0.0
220
0.0
230
1.0
 70
     1
 71
     3
 72
    20
 73
    16
 74
     0
 42
0.0000000001
 43
0.0000000001
 40
0.0
 40
0.0
 40
0.0
 40
0.0
 40
0.25
 40
0.25
 40
0.25
 40
0.25
 40
0.5
 40
0.5
 40
0.5
 40
0.5
 40
0.75
 40
0.75
 40
0.75
 40
0.75
 40
1.0
 40
1.0
 40
1.0
 40
1.0
 10
0.0609
 20
-295.75049999999999
 30
0.0
 10
53.850299999999997
 20
-295.75049999999999
 30
0.0
 10
104.35980000000001
 20
-281.26249999999999
 30
0.0
 10
147.8999
 20
-256.0027
 30
0.0
 10
147.8999
 20
-256.0027
 30
0.0
 10
147.8999
 20
-256.0027
 30
0.0
 10
143.9008
 20
-249.0778
 30
0.0
 10
143.9008
 20
-249.0778
 30
0.0
 10
143.9008
 20
-249.0778
 30
0.0
 10
101.5384
 20
-273.65429999999998
 30
0.0
 10
52.395400000000002
 20
-287.75049999999999
 30
0.0
 10
0.0609
 20
-287.75049999999999
 30
0.0
 10
0.0609
 20
-287.75049999999999
 30
0.0
 10
0.0609
 20
-287.75049999999999
 30
0.0
 10
0.0609
 20
-295.75049999999999
 30
0.0
 10
0.0609
 20
-295.75049999999999
 30
0.0
  0
SPLINE
  5
91
100
AcDbEntity
  8
EBENE_1
100
AcDbSpline
210
0.0
220
0.0
230
1.0
 70
     1
 71
     3
 72
    20
 73
    16
 74
     0
 42
0.0000000001
 43
0.0000000001
 40
0.0
 40
0.0
 40
0.0
 40
0.0
 40
0.25
 40
0.25
 40
0.25
 40
0.25
 40
0.5
 40
0.5
 40
0.5
 40
0.5
 40
0.75
 40
0.75
 40
0.75
 40
0.75
 40
1.0
 40
1.0
 40
1.0
 40
1.0
 10
0.0609
 20
-290.75049999999999
 30
0.0
 10
52.941000000000003
 20
-290.75049999999999
 30
0.0
 10
102.5964
 20
-276.50749999999999
 30
0.0
 10
145.40049999999999
 20
-251.6747
 30
0.0
 10
145.40049999999999
 20
-251.6747
 30
0.0
 10
145.40049999999999
 20
-251.6747
 30
0.0
 10
146.40020000000001
 20
-253.4059
 30
0.0
 10
146.40020000000001
 20
-253.4059
 30
0.0
 10
146.40020000000001
 20
-253.4059
 30
0.0
 10
103.30159999999999
 20
-278.40949999999998
 30
0.0
 10
53.304699999999997
 20
-292.75049999999999
 30
0.0
 10
0.0609
 20
-292.75049999999999
 30
0.0
 10
0.0609
 20
-292.75049999999999
 30
0.0
 10
0.0609
 20
-292.75049999999999
 30
0.0
 10
0.0609
 20
-290.75049999999999
 30
0.0
 10
0.0609
 20
-290.75049999999999
 30
0.0
  0
SPLINE
  5
92
100
AcDbEntity
  8
EBENE_1
100
AcDbSpline
210
0.0
220
0.0
230
1.0
 70
     0
 71
     3
 72
     8
 73
     4
 74
     0
 42
0.0000000001
 43
0.0000000001
 40
0.0
 40
0.0
 40
0.0
 40
0.0
 40
1.0
 40
1.0
 40
1.0
 40
1.0
 10
0.0768
 20
-282.49990000000003
 30
0.0
 10
51.456400000000002
 20
-282.49990000000003
 30
0.0
 10
99.7029
 20
-268.661
 30
0.0
 10
141.29239999999999
 20
-244.53290000000001
 30
0.0
  0
SPLINE
  5
93
100
AcDbEntity
  8
EBENE_1
 62
   252
100
AcDbSpline
210
0.0
220
0.0
230
1.0
 70
     1
 71
     3
 72
    20
 73
    16
 74
     0
 42
0.0000000001
 43
0.0000000001
 40
0.0
 40
0.0
 40
0.0
 40
0.0
 40
0.25
 40
0.25
 40
0.25
 40
0.25
 40
0.5
 40
0.5
 40
0.5
 40
0.5
 40
0.75
 40
0.75
 40
0.75
 40
0.75
 40
1.0
 40
1.0
 40
1.0
 40
1.0
 10
157.86519999999999
 20
-273.23099999999999
 30
0.0
 10
207.559
 20
-244.5472
 30
0.0
 10
246.49299999999999
 20
-204.2278
 30
0.0
 10
273.24119999999999
 20
-157.67310000000001
 30
0.0
 10
273.24119999999999
 20
-157.67310000000001
 30
0.0
 10
273.24119999999999
 20
-157.67310000000001
 30
0.0
 10
215.88640000000001
 20
-124.6448
 30
0.0
 10
215.88640000000001
 20
-124.6448
 30
0.0
 10
215.88640000000001
 20
-124.6448
 30
0.0
 10
194.47929999999999
 20
-161.9034
 30
0.0
 10
164.50299999999999
 20
-192.90090000000001
 30
0.0
 10
124.7323
 20
-215.857
 30
0.0
 10
124.7323
 20
-215.857
 30
0.0
 10
124.7323
 20
-215.857
 30
0.0
 10
157.86519999999999
 20
-273.23099999999999
 30
0.0
 10
157.86519999999999
 20
-273.23099999999999
 30
0.0
  0
SPLINE
  5
94
100
AcDbEntity
  8
EBENE_1
 62
   253
100
AcDbSpline
210
0.0
220
0.0
230
1.0
 70
     1
 71
     3
 72
    20
 73
    16
 74
     0
 42
0.0000000001
 43
0.0000000001
 40
0.0
 40
0.0
 40
0.0
 40
0.0
 40
0.25
 40
0.25
 40
0.25
 40
0.25
 40
0.5
 40
0.5
 40
0.5
 40
0.5
 40
0.75
 40
0.75
 40
0.75
 40
0.75
 40
1.0
 40
1.0
 40
1.0
 40
1.0
 10
152.34139999999999
 20
-263.66570000000002
 30
0.0
 10
202.0352
 20
-234.982
 30
0.0
 10
236.72929999999999
 20
-198.61539999999999
 30
0.0
 10
263.4776
 20
-152.0607
 30
0.0
 10
263.4776
 20
-152.0607
 30
0.0
 10
263.4776
 20
-152.0607
 30
0.0
 10
226.572
 20
-130.87029999999999
 30
0.0
 10
226.572
 20
-130.87029999999999
 30
0.0
 10
226.572
 20
-130.87029999999999
 30
0.0
 10
205.16480000000001
 20
-168.12889999999999
 30
0.0
 10
170.35830000000001
 20
-203.03999999999999
 30
0.0
 10
130.58750000000001
 20
-225.99610000000001
 30
0.0
 10
130.58750000000001
 20
-225.99610000000001
 30
0.0
 10
130.58750000000001
 20
-225.99610000000001
 30
0.0
 10
152.34139999999999
 20
-263.66570000000002
 30
0.0
 10
152.34139999999999
 20
-263.66570000000002
 30
0.0
  0
SPLINE
  5
95
100
AcDbEntity
  8
EBENE_1
100
AcDbSpline
210
0.0
220
0.0
230
1.0
 70
     1
 71
     3
 72
    20
 73
    16
 74
     0
 42
0.0000000001
 43
0.0000000001
 40
0.0
 40
0.0
 40
0.0
 40
0.0
 40
0.25
 40
0.25
 40
0.25
 40
0.25
 40
0.5
 40
0.5
 40
0.5
 40
0.5
 40
0.75
 40
0.75
 40
0.75
 40
0.75
 40
1.0
 40
1.0
 40
1.0
 40
1.0
 10
146.83369999999999
 20
-220.6712
 30
0.0
 10
146.83369999999999
 20
-220.6712
 30
0.0
 10
165.7765
 20
-250.10499999999999
 30
0.0
 10
165.7765
 20
-250.10499999999999
 30
0.0
 10
165.7765
 20
-250.10499999999999
 30
0.0
 10
165.7765
 20
-250.10499999999999
 30
0.0
 10
159.0471
 20
-254.43369999999999
 30
0.0
 10
159.0471
 20
-254.43369999999999
 30
0.0
 10
159.0471
 20
-254.43369999999999
 30
0.0
 10
159.0471
 20
-254.43369999999999
 30
0.0
 10
140.1044
 20
-225.0
 30
0.0
 10
140.1044
 20
-225.0
 30
0.0
 10
140.1044
 20
-225.0
 30
0.0
 10
140.1044
 20
-225.0
 30
0.0
 10
146.83369999999999
 20
-220.6712
 30
0.0
 10
146.83369999999999
 20
-220.6712
 30
0.0
  0
SPLINE
  5
96
100
AcDbEntity
  8
EBENE_1
100
AcDbSpline
210
0.0
220
0.0
230
1.0
 70
     1
 71
     3
 72
    20
 73
    16
 74
     0
 42
0.0000000001
 43
0.0000000001
 40
0.0
 40
0.0
 40
0.0
 40
0.0
 40
0.25
 40
0.25
 40
0.25
 40
0.25
 40
0.5
 40
0.5
 40
0.5
 40
0.5
 40
0.75
 40
0.75
 40
0.75
 40
0.75
 40
1.0
 40
1.0
 40
1.0
 40
1.0
 10
224.9204
 20
-140.31899999999999
 30
0.0
 10
224.9204
 20
-140.31899999999999
 30
0.0
 10
254.3357
 20
-159.29689999999999
 30
0.0
 10
254.3357
 20
-159.29689999999999
 30
0.0
 10
254.3357
 20
-159.29689999999999
 30
0.0
 10
254.3357
 20
-159.29689999999999
 30
0.0
 10
249.99680000000001
 20
-166.0187
 30
0.0
 10
249.99680000000001
 20
-166.0187
 30
0.0
 10
249.99680000000001
 20
-166.0187
 30
0.0
 10
249.99680000000001
 20
-166.0187
 30
0.0
 10
220.58160000000001
 20
-147.04089999999999
 30
0.0
 10
220.58160000000001
 20
-147.04089999999999
 30
0.0
 10
220.58160000000001
 20
-147.04089999999999
 30
0.0
 10
220.58160000000001
 20
-147.04089999999999
 30
0.0
 10
224.9204
 20
-140.31899999999999
 30
0.0
 10
224.9204
 20
-140.31899999999999
 30
0.0
  0
SPLINE
  5
97
100
AcDbEntity
  8
EBENE_1
100
AcDbSpline
210
0.0
220
0.0
230
1.0
 70
     1
 71
     3
 72
    20
 73
    16
 74
     0
 42
0.0000000001
 43
0.0000000001
 40
0.0
 40
0.0
 40
0.0
 40
0.0
 40
0.25
 40
0.25
 40
0.25
 40
0.25
 40
0.5
 40
0.5
 40
0.5
 40
0.5
 40
0.75
 40
0.75
 40
0.75
 40
0.75
 40
1.0
 40
1.0
 40
1.0
 40
1.0
 10
176.86019999999999
 20
-197.44499999999999
 30
0.0
 10
176.86019999999999
 20
-197.44499999999999
 30
0.0
 10
199.81469999999999
 20
-223.87129999999999
 30
0.0
 10
199.81469999999999
 20
-223.87129999999999
 30
0.0
 10
199.81469999999999
 20
-223.87129999999999
 30
0.0
 10
199.81469999999999
 20
-223.87129999999999
 30
0.0
 10
193.773
 20
-229.11670000000001
 30
0.0
 10
193.773
 20
-229.11670000000001
 30
0.0
 10
193.773
 20
-229.11670000000001
 30
0.0
 10
193.773
 20
-229.11670000000001
 30
0.0
 10
170.8185
 20
-202.69049999999999
 30
0.0
 10
170.8185
 20
-202.69049999999999
 30
0.0
 10
170.8185
 20
-202.69049999999999
 30
0.0
 10
170.8185
 20
-202.69049999999999
 30
0.0
 10
176.86019999999999
 20
-197.44499999999999
 30
0.0
 10
176.86019999999999
 20
-197.44499999999999
 30
0.0
  0
SPLINE
  5
98
100
AcDbEntity
  8
EBENE_1
100
AcDbSpline
210
0.0
220
0.0
230
1.0
 70
     1
 71
     3
 72
    20
 73
    16
 74
     0
 42
0.0000000001
 43
0.0000000001
 40
0.0
 40
0.0
 40
0.0
 40
0.0
 40
0.25
 40
0.25
 40
0.25
 40
0.25
 40
0.5
 40
0.5
 40
0.5
 40
0.5
 40
0.75
 40
0.75
 40
0.75
 40
0.75
 40
1.0
 40
1.0
 40
1.0
 40
1.0
 10
203.19810000000001
 20
-170.2422
 30
0.0
 10
203.19810000000001
 20
-170.2422
 30
0.0
 10
229.685
 20
-193.1285
 30
0.0
 10
229.685
 20
-193.1285
 30
0.0
 10
229.685
 20
-193.1285
 30
0.0
 10
229.685
 20
-193.1285
 30
0.0
 10
224.45249999999999
 20
-199.18119999999999
 30
0.0
 10
224.45249999999999
 20
-199.18119999999999
 30
0.0
 10
224.45249999999999
 20
-199.18119999999999
 30
0.0
 10
224.45249999999999
 20
-199.18119999999999
 30
0.0
 10
197.96559999999999
 20
-176.29490000000001
 30
0.0
 10
197.96559999999999
 20
-176.29490000000001
 30
0.0
 10
197.96559999999999
 20
-176.29490000000001
 30
0.0
 10
197.96559999999999
 20
-176.29490000000001
 30
0.0
 10
203.19810000000001
 20
-170.2422
 30
0.0
 10
203.19810000000001
 20
-170.2422
 30
0.0
  0
SPLINE
  5
99
100
AcDbEntity
  8
EBENE_1
 62
   251
100
AcDbSpline
210
0.0
220
0.0
230
1.0
 70
     1
 71
     3
 72
    20
 73
    16
 74
     0
 42
0.0000000001
 43
0.0000000001
 40
0.0
 40
0.0
 40
0.0
 40
0.0
 40
0.25
 40
0.25
 40
0.25
 40
0.25
 40
0.5
 40
0.5
 40
0.5
 40
0.5
 40
0.75
 40
0.75
 40
0.75
 40
0.75
 40
1.0
 40
1.0
 40
1.0
 40
1.0
 10
138.72210000000001
 20
-240.114
 30
0.0
 10
182.39109999999999
 20
-214.90780000000001
 30
0.0
 10
216.60480000000001
 20
-179.47649999999999
 30
0.0
 10
240.1103
 20
-138.5659
 30
0.0
 10
240.1103
 20
-138.5659
 30
0.0
 10
240.1103
 20
-138.5659
 30
0.0
 10
233.18360000000001
 20
-134.56780000000001
 30
0.0
 10
233.18360000000001
 20
-134.56780000000001
 30
0.0
 10
233.18360000000001
 20
-134.56780000000001
 30
0.0
 10
210.35640000000001
 20
-174.2978
 30
0.0
 10
177.1301
 20
-208.70689999999999
 30
0.0
 10
134.72110000000001
 20
-233.1858
 30
0.0
 10
134.72110000000001
 20
-233.1858
 30
0.0
 10
134.72110000000001
 20
-233.1858
 30
0.0
 10
138.72210000000001
 20
-240.114
 30
0.0
 10
138.72210000000001
 20
-240.114
 30
0.0
  0
SPLINE
  5
9A
100
AcDbEntity
  8
EBENE_1
100
AcDbSpline
210
0.0
220
0.0
230
1.0
 70
     1
 71
     3
 72
    20
 73
    16
 74
     0
 42
0.0000000001
 43
0.0000000001
 40
0.0
 40
0.0
 40
0.0
 40
0.0
 40
0.25
 40
0.25
 40
0.25
 40
0.25
 40
0.5
 40
0.5
 40
0.5
 40
0.5
 40
0.75
 40
0.75
 40
0.75
 40
0.75
 40
1.0
 40
1.0
 40
1.0
 40
1.0
 10
137.2217
 20
-237.51589999999999
 30
0.0
 10
180.41820000000001
 20
-212.58240000000001
 30
0.0
 10
214.26159999999999
 20
-177.53440000000001
 30
0.0
 10
237.5128
 20
-137.06659999999999
 30
0.0
 10
237.5128
 20
-137.06659999999999
 30
0.0
 10
237.5128
 20
-137.06659999999999
 30
0.0
 10
235.78120000000001
 20
-136.06710000000001
 30
0.0
 10
235.78120000000001
 20
-136.06710000000001
 30
0.0
 10
235.78120000000001
 20
-136.06710000000001
 30
0.0
 10
212.69970000000001
 20
-176.2398
 30
0.0
 10
179.10300000000001
 20
-211.03219999999999
 30
0.0
 10
136.22149999999999
 20
-235.78380000000001
 30
0.0
 10
136.22149999999999
 20
-235.78380000000001
 30
0.0
 10
136.22149999999999
 20
-235.78380000000001
 30
0.0
 10
137.2217
 20
-237.51589999999999
 30
0.0
 10
137.2217
 20
-237.51589999999999
 30
0.0
  0
SPLINE
  5
9B
100
AcDbEntity
  8
EBENE_1
 62
   251
100
AcDbSpline
210
0.0
220
0.0
230
1.0
 70
     1
 71
     3
 72
    20
 73
    16
 74
     0
 42
0.0000000001
 43
0.0000000001
 40
0.0
 40
0.0
 40
0.0
 40
0.0
 40
0.25
 40
0.25
 40
0.25
 40
0.25
 40
0.5
 40
0.5
 40
0.5
 40
0.5
 40
0.75
 40
0.75
 40
0.75
 40
0.75
 40
1.0
 40
1.0
 40
1.0
 40
1.0
 10
147.9743
 20
-256.1354
 30
0.0
 10
194.55719999999999
 20
-229.2473
 30
0.0
 10
231.054
 20
-191.45169999999999
 30
0.0
 10
256.12779999999998
 20
-147.81129999999999
 30
0.0
 10
256.12779999999998
 20
-147.81129999999999
 30
0.0
 10
256.12779999999998
 20
-147.81129999999999
 30
0.0
 10
249.2012
 20
-143.81319999999999
 30
0.0
 10
249.2012
 20
-143.81319999999999
 30
0.0
 10
249.2012
 20
-143.81319999999999
 30
0.0
 10
224.8056
 20
-186.2732
 30
0.0
 10
189.2963
 20
-223.04640000000001
 30
0.0
 10
143.97329999999999
 20
-249.2072
 30
0.0
 10
143.97329999999999
 20
-249.2072
 30
0.0
 10
143.97329999999999
 20
-249.2072
 30
0.0
 10
147.9743
 20
-256.1354
 30
0.0
 10
147.9743
 20
-256.1354
 30
0.0
  0
SPLINE
  5
9C
100
AcDbEntity
  8
EBENE_1
100
AcDbSpline
210
0.0
220
0.0
230
1.0
 70
     1
 71
     3
 72
    20
 73
    16
 74
     0
 42
0.0000000001
 43
0.0000000001
 40
0.0
 40
0.0
 40
0.0
 40
0.0
 40
0.25
 40
0.25
 40
0.25
 40
0.25
 40
0.5
 40
0.5
 40
0.5
 40
0.5
 40
0.75
 40
0.75
 40
0.75
 40
0.75
 40
1.0
 40
1.0
 40
1.0
 40
1.0
 10
145.47370000000001
 20
-251.80529999999999
 30
0.0
 10
191.26910000000001
 20
-225.3717
 30
0.0
 10
227.14879999999999
 20
-188.21530000000001
 30
0.0
 10
251.7988
 20
-145.3126
 30
0.0
 10
251.7988
 20
-145.3126
 30
0.0
 10
251.7988
 20
-145.3126
 30
0.0
 10
253.53039999999999
 20
-146.31209999999999
 30
0.0
 10
253.53039999999999
 20
-146.31209999999999
 30
0.0
 10
253.53039999999999
 20
-146.31209999999999
 30
0.0
 10
228.71080000000001
 20
-189.50989999999999
 30
0.0
 10
192.58439999999999
 20
-226.922
 30
0.0
 10
146.47389999999999
 20
-253.53739999999999
 30
0.0
 10
146.47389999999999
 20
-253.53739999999999
 30
0.0
 10
146.47389999999999
 20
-253.53739999999999
 30
0.0
 10
145.47370000000001
 20
-251.80529999999999
 30
0.0
 10
145.47370000000001
 20
-251.80529999999999
 30
0.0
  0
SPLINE
  5
9D
100
AcDbEntity
  8
EBENE_1
100
AcDbSpline
210
0.0
220
0.0
230
1.0
 70
     0
 71
     3
 72
     8
 73
     4
 74
     0
 42
0.0000000001
 43
0.0000000001
 40
0.0
 40
0.0
 40
0.0
 40
0.0
 40
1.0
 40
1.0
 40
1.0
 40
1.0
 10
141.3612
 20
-244.65209999999999
 30
0.0
 10
185.85720000000001
 20
-218.96860000000001
 30
0.0
 10
220.71870000000001
 20
-182.8664
 30
0.0
 10
244.66929999999999
 20
-141.18109999999999
 30
0.0
  0
SPLINE
  5
9E
100
AcDbEntity
  8
EBENE_1
 62
   252
100
AcDbSpline
210
0.0
220
0.0
230
1.0
 70
     1
 71
     3
 72
    20
 73
    16
 74
     0
 42
0.0000000001
 43
0.0000000001
 40
0.0
 40
0.0
 40
0.0
 40
0.0
 40
0.25
 40
0.25
 40
0.25
 40
0.25
 40
0.5
 40
0.5
 40
0.5
 40
0.5
 40
0.75
 40
0.75
 40
0.75
 40
0.75
 40
1.0
 40
1.0
 40
1.0
 40
1.0
 10
273.37430000000001
 20
-157.7499
 30
0.0
 10
302.06509999999997
 20
-108.0682
 30
0.0
 10
315.61829999999998
 20
-53.688299999999998
 30
0.0
 10
315.49990000000003
 20
0.0001
 30
0.0
 10
315.49990000000003
 20
0.0001
 30
0.0
 10
315.49990000000003
 20
0.0001
 30
0.0
 10
249.31110000000001
 20
-0.067
 30
0.0
 10
249.31110000000001
 20
-0.067
 30
0.0
 10
249.31110000000001
 20
-0.067
 30
0.0
 10
249.4058
 20
-43.034799999999997
 30
0.0
 10
238.94810000000001
 20
-84.863900000000001
 30
0.0
 10
215.9864
 20
-124.625
 30
0.0
 10
215.9864
 20
-124.625
 30
0.0
 10
215.9864
 20
-124.625
 30
0.0
 10
273.37430000000001
 20
-157.7499
 30
0.0
 10
273.37430000000001
 20
-157.7499
 30
0.0
  0
SPLINE
  5
9F
100
AcDbEntity
  8
EBENE_1
 62
   253
100
AcDbSpline
210
0.0
220
0.0
230
1.0
 70
     1
 71
     3
 72
    20
 73
    16
 74
     0
 42
0.0000000001
 43
0.0000000001
 40
0.0
 40
0.0
 40
0.0
 40
0.0
 40
0.25
 40
0.25
 40
0.25
 40
0.25
 40
0.5
 40
0.5
 40
0.5
 40
0.5
 40
0.75
 40
0.75
 40
0.75
 40
0.75
 40
1.0
 40
1.0
 40
1.0
 40
1.0
 10
263.80680000000001
 20
-152.22739999999999
 30
0.0
 10
292.4975
 20
-102.5457
 30
0.0
 10
304.35590000000002
 20
-53.708500000000001
 30
0.0
 10
304.23750000000001
 20
-0.02
 30
0.0
 10
304.23750000000001
 20
-0.02
 30
0.0
 10
304.23750000000001
 20
-0.02
 30
0.0
 10
261.67860000000002
 20
-0.1169
 30
0.0
 10
261.67860000000002
 20
-0.1169
 30
0.0
 10
261.67860000000002
 20
-0.1169
 30
0.0
 10
261.77319999999997
 20
-43.084699999999998
 30
0.0
 10
249.08969999999999
 20
-90.717699999999994
 30
0.0
 10
226.12799999999999
 20
-130.47890000000001
 30
0.0
 10
226.12799999999999
 20
-130.47890000000001
 30
0.0
 10
226.12799999999999
 20
-130.47890000000001
 30
0.0
 10
263.80680000000001
 20
-152.22739999999999
 30
0.0
 10
263.80680000000001
 20
-152.22739999999999
 30
0.0
  0
SPLINE
  5
A0
100
AcDbEntity
  8
EBENE_1
100
AcDbSpline
210
0.0
220
0.0
230
1.0
 70
     1
 71
     3
 72
    20
 73
    16
 74
     0
 42
0.0000000001
 43
0.0000000001
 40
0.0
 40
0.0
 40
0.0
 40
0.0
 40
0.25
 40
0.25
 40
0.25
 40
0.25
 40
0.5
 40
0.5
 40
0.5
 40
0.5
 40
0.75
 40
0.75
 40
0.75
 40
0.75
 40
1.0
 40
1.0
 40
1.0
 40
1.0
 10
237.53460000000001
 20
-117.7462
 30
0.0
 10
237.53460000000001
 20
-117.7462
 30
0.0
 10
268.66000000000003
 20
-133.76750000000001
 30
0.0
 10
268.66000000000003
 20
-133.76750000000001
 30
0.0
 10
268.66000000000003
 20
-133.76750000000001
 30
0.0
 10
268.66000000000003
 20
-133.76750000000001
 30
0.0
 10
264.99709999999999
 20
-140.8802
 30
0.0
 10
264.99709999999999
 20
-140.8802
 30
0.0
 10
264.99709999999999
 20
-140.8802
 30
0.0
 10
264.99709999999999
 20
-140.8802
 30
0.0
 10
233.8716
 20
-124.85890000000001
 30
0.0
 10
233.8716
 20
-124.85890000000001
 30
0.0
 10
233.8716
 20
-124.85890000000001
 30
0.0
 10
233.8716
 20
-124.85890000000001
 30
0.0
 10
237.53460000000001
 20
-117.7462
 30
0.0
 10
237.53460000000001
 20
-117.7462
 30
0.0
  0
SPLINE
  5
A1
100
AcDbEntity
  8
EBENE_1
100
AcDbSpline
210
0.0
220
0.0
230
1.0
 70
     1
 71
     3
 72
    20
 73
    16
 74
     0
 42
0.0000000001
 43
0.0000000001
 40
0.0
 40
0.0
 40
0.0
 40
0.0
 40
0.25
 40
0.25
 40
0.25
 40
0.25
 40
0.5
 40
0.5
 40
0.5
 40
0.5
 40
0.75
 40
0.75
 40
0.75
 40
0.75
 40
1.0
 40
1.0
 40
1.0
 40
1.0
 10
264.97370000000001
 20
-9.1252999999999993
 30
0.0
 10
264.97370000000001
 20
-9.1252999999999993
 30
0.0
 10
299.93939999999998
 20
-10.8566
 30
0.0
 10
299.93939999999998
 20
-10.8566
 30
0.0
 10
299.93939999999998
 20
-10.8566
 30
0.0
 10
299.93939999999998
 20
-10.8566
 30
0.0
 10
299.54360000000003
 20
-18.846800000000002
 30
0.0
 10
299.54360000000003
 20
-18.846800000000002
 30
0.0
 10
299.54360000000003
 20
-18.846800000000002
 30
0.0
 10
299.54360000000003
 20
-18.846800000000002
 30
0.0
 10
264.5779
 20
-17.115500000000001
 30
0.0
 10
264.5779
 20
-17.115500000000001
 30
0.0
 10
264.5779
 20
-17.115500000000001
 30
0.0
 10
264.5779
 20
-17.115500000000001
 30
0.0
 10
264.97370000000001
 20
-9.1252999999999993
 30
0.0
 10
264.97370000000001
 20
-9.1252999999999993
 30
0.0
  0
SPLINE
  5
A2
100
AcDbEntity
  8
EBENE_1
100
AcDbSpline
210
0.0
220
0.0
230
1.0
 70
     1
 71
     3
 72
    20
 73
    16
 74
     0
 42
0.0000000001
 43
0.0000000001
 40
0.0
 40
0.0
 40
0.0
 40
0.0
 40
0.25
 40
0.25
 40
0.25
 40
0.25
 40
0.5
 40
0.5
 40
0.5
 40
0.5
 40
0.75
 40
0.75
 40
0.75
 40
0.75
 40
1.0
 40
1.0
 40
1.0
 40
1.0
 10
251.92240000000001
 20
-82.622100000000003
 30
0.0
 10
251.92240000000001
 20
-82.622100000000003
 30
0.0
 10
285.0179
 20
-94.033500000000004
 30
0.0
 10
285.0179
 20
-94.033500000000004
 30
0.0
 10
285.0179
 20
-94.033500000000004
 30
0.0
 10
285.0179
 20
-94.033500000000004
 30
0.0
 10
282.40890000000002
 20
-101.5963
 30
0.0
 10
282.40890000000002
 20
-101.5963
 30
0.0
 10
282.40890000000002
 20
-101.5963
 30
0.0
 10
282.40890000000002
 20
-101.5963
 30
0.0
 10
249.3134
 20
-90.185000000000002
 30
0.0
 10
249.3134
 20
-90.185000000000002
 30
0.0
 10
249.3134
 20
-90.185000000000002
 30
0.0
 10
249.3134
 20
-90.185000000000002
 30
0.0
 10
251.92240000000001
 20
-82.622100000000003
 30
0.0
 10
251.92240000000001
 20
-82.622100000000003
 30
0.0
  0
SPLINE
  5
A3
100
AcDbEntity
  8
EBENE_1
100
AcDbSpline
210
0.0
220
0.0
230
1.0
 70
     1
 71
     3
 72
    20
 73
    16
 74
     0
 42
0.0000000001
 43
0.0000000001
 40
0.0
 40
0.0
 40
0.0
 40
0.0
 40
0.25
 40
0.25
 40
0.25
 40
0.25
 40
0.5
 40
0.5
 40
0.5
 40
0.5
 40
0.75
 40
0.75
 40
0.75
 40
0.75
 40
1.0
 40
1.0
 40
1.0
 40
1.0
 10
261.1268
 20
-45.898099999999999
 30
0.0
 10
261.1268
 20
-45.898099999999999
 30
0.0
 10
295.5111
 20
-52.478000000000002
 30
0.0
 10
295.5111
 20
-52.478000000000002
 30
0.0
 10
295.5111
 20
-52.478000000000002
 30
0.0
 10
295.5111
 20
-52.478000000000002
 30
0.0
 10
294.0068
 20
-60.335299999999997
 30
0.0
 10
294.0068
 20
-60.335299999999997
 30
0.0
 10
294.0068
 20
-60.335299999999997
 30
0.0
 10
294.0068
 20
-60.335299999999997
 30
0.0
 10
259.6225
 20
-53.755499999999998
 30
0.0
 10
259.6225
 20
-53.755499999999998
 30
0.0
 10
259.6225
 20
-53.755499999999998
 30
0.0
 10
259.6225
 20
-53.755499999999998
 30
0.0
 10
261.1268
 20
-45.898099999999999
 30
0.0
 10
261.1268
 20
-45.898099999999999
 30
0.0
  0
SPLINE
  5
A4
100
AcDbEntity
  8
EBENE_1
 62
   251
100
AcDbSpline
210
0.0
220
0.0
230
1.0
 70
     1
 71
     3
 72
    20
 73
    16
 74
     0
 42
0.0000000001
 43
0.0000000001
 40
0.0
 40
0.0
 40
0.0
 40
0.0
 40
0.25
 40
0.25
 40
0.25
 40
0.25
 40
0.5
 40
0.5
 40
0.5
 40
0.5
 40
0.75
 40
0.75
 40
0.75
 40
0.75
 40
1.0
 40
1.0
 40
1.0
 40
1.0
 10
240.23339999999999
 20
-138.63900000000001
 30
0.0
 10
265.44569999999999
 20
-94.980599999999995
 30
0.0
 10
277.35570000000001
 20
-47.1935
 30
0.0
 10
277.25189999999998
 20
-0.014
 30
0.0
 10
277.25189999999998
 20
-0.014
 30
0.0
 10
277.25189999999998
 20
-0.014
 30
0.0
 10
269.25349999999997
 20
-0.014
 30
0.0
 10
269.25349999999997
 20
-0.014
 30
0.0
 10
269.25349999999997
 20
-0.014
 30
0.0
 10
269.35449999999997
 20
-45.832099999999997
 30
0.0
 10
257.78829999999999
 20
-92.240300000000005
 30
0.0
 10
233.30350000000001
 20
-134.63900000000001
 30
0.0
 10
233.30350000000001
 20
-134.63900000000001
 30
0.0
 10
233.30350000000001
 20
-134.63900000000001
 30
0.0
 10
240.23339999999999
 20
-138.63900000000001
 30
0.0
 10
240.23339999999999
 20
-138.63900000000001
 30
0.0
  0
SPLINE
  5
A5
100
AcDbEntity
  8
EBENE_1
100
AcDbSpline
210
0.0
220
0.0
230
1.0
 70
     1
 71
     3
 72
    20
 73
    16
 74
     0
 42
0.0000000001
 43
0.0000000001
 40
0.0
 40
0.0
 40
0.0
 40
0.0
 40
0.25
 40
0.25
 40
0.25
 40
0.25
 40
0.5
 40
0.5
 40
0.5
 40
0.5
 40
0.75
 40
0.75
 40
0.75
 40
0.75
 40
1.0
 40
1.0
 40
1.0
 40
1.0
 10
237.63470000000001
 20
-137.13900000000001
 30
0.0
 10
262.57420000000002
 20
-93.953000000000003
 30
0.0
 10
274.35520000000002
 20
-46.6828
 30
0.0
 10
274.25240000000002
 20
-0.0139
 30
0.0
 10
274.25240000000002
 20
-0.0139
 30
0.0
 10
274.25240000000002
 20
-0.0139
 30
0.0
 10
272.25299999999999
 20
-0.0139
 30
0.0
 10
272.25299999999999
 20
-0.0139
 30
0.0
 10
272.25299999999999
 20
-0.0139
 30
0.0
 10
272.35509999999999
 20
-46.342500000000001
 30
0.0
 10
260.65989999999999
 20
-93.267899999999997
 30
0.0
 10
235.90219999999999
 20
-136.13900000000001
 30
0.0
 10
235.90219999999999
 20
-136.13900000000001
 30
0.0
 10
235.90219999999999
 20
-136.13900000000001
 30
0.0
 10
237.63470000000001
 20
-137.13900000000001
 30
0.0
 10
237.63470000000001
 20
-137.13900000000001
 30
0.0
  0
SPLINE
  5
A6
100
AcDbEntity
  8
EBENE_1
 62
   251
100
AcDbSpline
210
0.0
220
0.0
230
1.0
 70
     1
 71
     3
 72
    20
 73
    16
 74
     0
 42
0.0000000001
 43
0.0000000001
 40
0.0
 40
0.0
 40
0.0
 40
0.0
 40
0.25
 40
0.25
 40
0.25
 40
0.25
 40
0.5
 40
0.5
 40
0.5
 40
0.5
 40
0.75
 40
0.75
 40
0.75
 40
0.75
 40
1.0
 40
1.0
 40
1.0
 40
1.0
 10
256.25880000000001
 20
-147.88900000000001
 30
0.0
 10
283.15350000000001
 20
-101.3173
 30
0.0
 10
295.85820000000001
 20
-50.341500000000003
 30
0.0
 10
295.7473
 20
-0.0139
 30
0.0
 10
295.7473
 20
-0.0139
 30
0.0
 10
295.7473
 20
-0.0139
 30
0.0
 10
287.7491
 20
-0.0139
 30
0.0
 10
287.7491
 20
-0.0139
 30
0.0
 10
287.7491
 20
-0.0139
 30
0.0
 10
287.85700000000003
 20
-48.980200000000004
 30
0.0
 10
275.49610000000001
 20
-98.577100000000002
 30
0.0
 10
249.3289
 20
-143.88900000000001
 30
0.0
 10
249.3289
 20
-143.88900000000001
 30
0.0
 10
249.3289
 20
-143.88900000000001
 30
0.0
 10
256.25880000000001
 20
-147.88900000000001
 30
0.0
 10
256.25880000000001
 20
-147.88900000000001
 30
0.0
  0
SPLINE
  5
A7
100
AcDbEntity
  8
EBENE_1
100
AcDbSpline
210
0.0
220
0.0
230
1.0
 70
     1
 71
     3
 72
    20
 73
    16
 74
     0
 42
0.0000000001
 43
0.0000000001
 40
0.0
 40
0.0
 40
0.0
 40
0.0
 40
0.25
 40
0.25
 40
0.25
 40
0.25
 40
0.5
 40
0.5
 40
0.5
 40
0.5
 40
0.75
 40
0.75
 40
0.75
 40
0.75
 40
1.0
 40
1.0
 40
1.0
 40
1.0
 10
251.92760000000001
 20
-145.38900000000001
 30
0.0
 10
278.36759999999998
 20
-99.604600000000005
 30
0.0
 10
290.85750000000002
 20
-49.4908
 30
0.0
 10
290.74849999999998
 20
-0.0139
 30
0.0
 10
290.74849999999998
 20
-0.0139
 30
0.0
 10
290.74849999999998
 20
-0.0139
 30
0.0
 10
292.74799999999999
 20
-0.014
 30
0.0
 10
292.74799999999999
 20
-0.014
 30
0.0
 10
292.74799999999999
 20
-0.014
 30
0.0
 10
292.8578
 20
-49.831099999999999
 30
0.0
 10
280.28190000000001
 20
-100.2898
 30
0.0
 10
253.66
 20
-146.38900000000001
 30
0.0
 10
253.66
 20
-146.38900000000001
 30
0.0
 10
253.66
 20
-146.38900000000001
 30
0.0
 10
251.92760000000001
 20
-145.38900000000001
 30
0.0
 10
251.92760000000001
 20
-145.38900000000001
 30
0.0
  0
SPLINE
  5
A8
100
AcDbEntity
  8
EBENE_1
100
AcDbSpline
210
0.0
220
0.0
230
1.0
 70
     0
 71
     3
 72
     8
 73
     4
 74
     0
 42
0.0000000001
 43
0.0000000001
 40
0.0
 40
0.0
 40
0.0
 40
0.0
 40
1.0
 40
1.0
 40
1.0
 40
1.0
 10
244.7886
 20
-141.2499
 30
0.0
 10
270.47829999999999
 20
-96.764700000000005
 30
0.0
 10
282.6139
 20
-48.072800000000001
 30
0.0
 10
282.50799999999998
 20
0.0001
 30
0.0
  0
LWPOLYLINE
  5
A9
100
AcDbEntity
  8
EBENE_1
 62
   252
100
AcDbPolyline
 90
        5
 70
     1
 10
97.589
 20
40.164
 10
148.589
 20
40.164
 10
148.589
 20
180.164
 10
97.589
 20
180.164
 10
97.589
 20
40.164
  0
LWPOLYLINE
  5
AA
100
AcDbEntity
  8
EBENE_1
 62
   253
100
AcDbPolyline
 90
        5
 70
     1
 10
101.339
 20
40.164
 10
144.839
 20
40.164
 10
144.839
 20
180.164
 10
101.339
 20
180.164
 10
101.339
 20
40.164
  0
SPLINE
  5
AB
100
AcDbEntity
  8
EBENE_1
100
AcDbSpline
210
0.0
220
0.0
230
1.0
 70
     1
 71
     3
 72
    20
 73
    16
 74
     0
 42
0.0000000001
 43
0.0000000001
 40
0.0
 40
0.0
 40
0.0
 40
0.0
 40
0.25
 40
0.25
 40
0.25
 40
0.25
 40
0.5
 40
0.5
 40
0.5
 40
0.5
 40
0.75
 40
0.75
 40
0.75
 40
0.75
 40
1.0
 40
1.0
 40
1.0
 40
1.0
 10
105.589
 20
170.864
 30
0.0
 10
105.589
 20
170.864
 30
0.0
 10
140.589
 20
170.864
 30
0.0
 10
140.589
 20
170.864
 30
0.0
 10
140.589
 20
170.864
 30
0.0
 10
140.589
 20
170.864
 30
0.0
 10
140.589
 20
162.864
 30
0.0
 10
140.589
 20
162.864
 30
0.0
 10
140.589
 20
162.864
 30
0.0
 10
140.589
 20
162.864
 30
0.0
 10
105.589
 20
162.864
 30
0.0
 10
105.589
 20
162.864
 30
0.0
 10
105.589
 20
162.864
 30
0.0
 10
105.589
 20
162.864
 30
0.0
 10
105.589
 20
170.864
 30
0.0
 10
105.589
 20
170.864
 30
0.0
  0
SPLINE
  5
AC
100
AcDbEntity
  8
EBENE_1
100
AcDbSpline
210
0.0
220
0.0
230
1.0
 70
     1
 71
     3
 72
    20
 73
    16
 74
     0
 42
0.0000000001
 43
0.0000000001
 40
0.0
 40
0.0
 40
0.0
 40
0.0
 40
0.25
 40
0.25
 40
0.25
 40
0.25
 40
0.5
 40
0.5
 40
0.5
 40
0.5
 40
0.75
 40
0.75
 40
0.75
 40
0.75
 40
1.0
 40
1.0
 40
1.0
 40
1.0
 10
105.589
 20
133.06399999999999
 30
0.0
 10
105.589
 20
133.06399999999999
 30
0.0
 10
140.589
 20
133.06399999999999
 30
0.0
 10
140.589
 20
133.06399999999999
 30
0.0
 10
140.589
 20
133.06399999999999
 30
0.0
 10
140.589
 20
133.06399999999999
 30
0.0
 10
140.589
 20
125.06399999999999
 30
0.0
 10
140.589
 20
125.06399999999999
 30
0.0
 10
140.589
 20
125.06399999999999
 30
0.0
 10
140.589
 20
125.06399999999999
 30
0.0
 10
105.589
 20
125.06399999999999
 30
0.0
 10
105.589
 20
125.06399999999999
 30
0.0
 10
105.589
 20
125.06399999999999
 30
0.0
 10
105.589
 20
125.06399999999999
 30
0.0
 10
105.589
 20
133.06399999999999
 30
0.0
 10
105.589
 20
133.06399999999999
 30
0.0
  0
SPLINE
  5
AD
100
AcDbEntity
  8
EBENE_1
100
AcDbSpline
210
0.0
220
0.0
230
1.0
 70
     1
 71
     3
 72
    20
 73
    16
 74
     0
 42
0.0000000001
 43
0.0000000001
 40
0.0
 40
0.0
 40
0.0
 40
0.0
 40
0.25
 40
0.25
 40
0.25
 40
0.25
 40
0.5
 40
0.5
 40
0.5
 40
0.5
 40
0.75
 40
0.75
 40
0.75
 40
0.75
 40
1.0
 40
1.0
 40
1.0
 40
1.0
 10
105.589
 20
95.263999999999996
 30
0.0
 10
105.589
 20
95.263999999999996
 30
0.0
 10
140.589
 20
95.263999999999996
 30
0.0
 10
140.589
 20
95.263999999999996
 30
0.0
 10
140.589
 20
95.263999999999996
 30
0.0
 10
140.589
 20
95.263999999999996
 30
0.0
 10
140.589
 20
87.263999999999996
 30
0.0
 10
140.589
 20
87.263999999999996
 30
0.0
 10
140.589
 20
87.263999999999996
 30
0.0
 10
140.589
 20
87.263999999999996
 30
0.0
 10
105.589
 20
87.263999999999996
 30
0.0
 10
105.589
 20
87.263999999999996
 30
0.0
 10
105.589
 20
87.263999999999996
 30
0.0
 10
105.589
 20
87.263999999999996
 30
0.0
 10
105.589
 20
95.263999999999996
 30
0.0
 10
105.589
 20
95.263999999999996
 30
0.0
  0
SPLINE
  5
AE
100
AcDbEntity
  8
EBENE_1
100
AcDbSpline
210
0.0
220
0.0
230
1.0
 70
     1
 71
     3
 72
    20
 73
    16
 74
     0
 42
0.0000000001
 43
0.0000000001
 40
0.0
 40
0.0
 40
0.0
 40
0.0
 40
0.25
 40
0.25
 40
0.25
 40
0.25
 40
0.5
 40
0.5
 40
0.5
 40
0.5
 40
0.75
 40
0.75
 40
0.75
 40
0.75
 40
1.0
 40
1.0
 40
1.0
 40
1.0
 10
105.589
 20
57.463999999999999
 30
0.0
 10
105.589
 20
57.463999999999999
 30
0.0
 10
140.589
 20
57.463999999999999
 30
0.0
 10
140.589
 20
57.463999999999999
 30
0.0
 10
140.589
 20
57.463999999999999
 30
0.0
 10
140.589
 20
57.463999999999999
 30
0.0
 10
140.589
 20
49.463999999999999
 30
0.0
 10
140.589
 20
49.463999999999999
 30
0.0
 10
140.589
 20
49.463999999999999
 30
0.0
 10
140.589
 20
49.463999999999999
 30
0.0
 10
105.589
 20
49.463999999999999
 30
0.0
 10
105.589
 20
49.463999999999999
 30
0.0
 10
105.589
 20
49.463999999999999
 30
0.0
 10
105.589
 20
49.463999999999999
 30
0.0
 10
105.589
 20
57.463999999999999
 30
0.0
 10
105.589
 20
57.463999999999999
 30
0.0
  0
LWPOLYLINE
  5
AF
100
AcDbEntity
  8
EBENE_1
 62
   251
100
AcDbPolyline
 90
        5
 70
     1
 10
109.8386
 20
40.0943
 10
117.8386
 20
40.0943
 10
117.8386
 20
180.0943
 10
109.8386
 20
180.0943
 10
109.8386
 20
40.0943
  0
LWPOLYLINE
  5
B0
100
AcDbEntity
  8
EBENE_1
 62
   251
100
AcDbPolyline
 90
        5
 70
     1
 10
128.3386
 20
40.0943
 10
136.3386
 20
40.0943
 10
136.3386
 20
180.0943
 10
128.3386
 20
180.0943
 10
128.3386
 20
40.0943
  0
SPLINE
  5
B1
100
AcDbEntity
  8
EBENE_1
100
AcDbSpline
210
0.0
220
0.0
230
1.0
 70
     0
 71
     3
 72
     8
 73
     4
 74
     0
 42
0.0000000001
 43
0.0000000001
 40
0.0
 40
0.0
 40
0.0
 40
0.0
 40
1.0
 40
1.0
 40
1.0
 40
1.0
 10
123.089
 20
40.094299999999997
 30
0.0
 10
123.089
 20
40.094299999999997
 30
0.0
 10
123.089
 20
180.0943
 30
0.0
 10
123.089
 20
180.0943
 30
0.0
  0
LWPOLYLINE
  5
B2
100
AcDbEntity
  8
EBENE_1
100
AcDbPolyline
 90
        5
 70
     1
 10
112.839
 20
40.0943
 10
114.839
 20
40.0943
 10
114.839
 20
180.0943
 10
112.839
 20
180.0943
 10
112.839
 20
40.0943
  0
LWPOLYLINE
  5
B3
100
AcDbEntity
  8
EBENE_1
100
AcDbPolyline
 90
        5
 70
     1
 10
131.339
 20
40.0943
 10
133.339
 20
40.0943
 10
133.339
 20
180.0943
 10
131.339
 20
180.0943
 10
131.339
 20
40.0943
  0
SPLINE
  5
B4
100
AcDbEntity
  8
EBENE_1
 62
   254
100
AcDbSpline
210
0.0
220
0.0
230
1.0
 70
     1
 71
     3
 72
    52
 73
    48
 74
     0
 42
0.0000000001
 43
0.0000000001
 40
0.0
 40
0.0
 40
0.0
 40
0.0
 40
0.0833333333333333
 40
0.0833333333333333
 40
0.0833333333333333
 40
0.0833333333333333
 40
0.1666666666666667
 40
0.1666666666666667
 40
0.1666666666666667
 40
0.1666666666666667
 40
0.25
 40
0.25
 40
0.25
 40
0.25
 40
0.3333333333333333
 40
0.3333333333333333
 40
0.3333333333333333
 40
0.3333333333333333
 40
0.4166666666666666
 40
0.4166666666666666
 40
0.4166666666666666
 40
0.4166666666666666
 40
0.4999999999999999
 40
0.4999999999999999
 40
0.4999999999999999
 40
0.4999999999999999
 40
0.5833333333333333
 40
0.5833333333333333
 40
0.5833333333333333
 40
0.5833333333333333
 40
0.6666666666666666
 40
0.6666666666666666
 40
0.6666666666666666
 40
0.6666666666666666
 40
0.75
 40
0.75
 40
0.75
 40
0.75
 40
0.8333333333333334
 40
0.8333333333333334
 40
0.8333333333333334
 40
0.8333333333333334
 40
0.9166666666666667
 40
0.9166666666666667
 40
0.9166666666666667
 40
0.9166666666666667
 40
1.0
 40
1.0
 40
1.0
 40
1.0
 10
2.3519999999999999
 20
0.5418
 30
0.0
 10
2.3519999999999999
 20
0.5418
 30
0.0
 10
32.351999999999997
 20
0.5418
 30
0.0
 10
32.351999999999997
 20
0.5418
 30
0.0
 10
32.351999999999997
 20
0.5418
 30
0.0
 10
32.351999999999997
 20
0.5418
 30
0.0
 10
42.851999999999997
 20
-7.8883999999999999
 30
0.0
 10
42.851999999999997
 20
-7.8883999999999999
 30
0.0
 10
42.851999999999997
 20
-7.8883999999999999
 30
0.0
 10
42.851999999999997
 20
-7.8883999999999999
 30
0.0
 10
42.851999999999997
 20
-48.353499999999997
 30
0.0
 10
42.851999999999997
 20
-48.353499999999997
 30
0.0
 10
42.851999999999997
 20
-48.353499999999997
 30
0.0
 10
42.851999999999997
 20
-48.353499999999997
 30
0.0
 10
39.851999999999997
 20
-48.353499999999997
 30
0.0
 10
39.851999999999997
 20
-48.353499999999997
 30
0.0
 10
39.851999999999997
 20
-48.353499999999997
 30
0.0
 10
39.851999999999997
 20
-48.353499999999997
 30
0.0
 10
39.851999999999997
 20
-63.527900000000002
 30
0.0
 10
39.851999999999997
 20
-63.527900000000002
 30
0.0
 10
39.851999999999997
 20
-63.527900000000002
 30
0.0
 10
39.851999999999997
 20
-63.527900000000002
 30
0.0
 10
32.351999999999997
 20
-71.958100000000002
 30
0.0
 10
32.351999999999997
 20
-71.958100000000002
 30
0.0
 10
32.351999999999997
 20
-71.958100000000002
 30
0.0
 10
32.351999999999997
 20
-71.958100000000002
 30
0.0
 10
2.3519999999999999
 20
-71.958100000000002
 30
0.0
 10
2.3519999999999999
 20
-71.958100000000002
 30
0.0
 10
2.3519999999999999
 20
-71.958100000000002
 30
0.0
 10
2.3519999999999999
 20
-71.958100000000002
 30
0.0
 10
-5.1479999999999997
 20
-63.527900000000002
 30
0.0
 10
-5.1479999999999997
 20
-63.527900000000002
 30
0.0
 10
-5.1479999999999997
 20
-63.527900000000002
 30
0.0
 10
-5.1479999999999997
 20
-63.527900000000002
 30
0.0
 10
-5.1479999999999997
 20
-48.353499999999997
 30
0.0
 10
-5.1479999999999997
 20
-48.353499999999997
 30
0.0
 10
-5.1479999999999997
 20
-48.353499999999997
 30
0.0
 10
-5.1479999999999997
 20
-48.353499999999997
 30
0.0
 10
-8.1479999999999997
 20
-48.353499999999997
 30
0.0
 10
-8.1479999999999997
 20
-48.353499999999997
 30
0.0
 10
-8.1479999999999997
 20
-48.353499999999997
 30
0.0
 10
-8.1479999999999997
 20
-48.353499999999997
 30
0.0
 10
-8.1479999999999997
 20
-7.8883999999999999
 30
0.0
 10
-8.1479999999999997
 20
-7.8883999999999999
 30
0.0
 10
-8.1479999999999997
 20
-7.8883999999999999
 30
0.0
 10
-8.1479999999999997
 20
-7.8883999999999999
 30
0.0
 10
2.3519999999999999
 20
0.5418
 30
0.0
 10
2.3519999999999999
 20
0.5418
 30
0.0
  0
LWPOLYLINE
  5
B5
100
AcDbEntity
  8
EBENE_1
100
AcDbPolyline
 90
        5
 70
     1
 10
-0.148
 20
-79.4837
 10
34.852
 20
-79.4837
 10
34.852
 20
-76.1841
 10
-0.148
 20
-76.1841
 10
-0.148
 20
-79.4837
  0
SPLINE
  5
B6
100
AcDbEntity
  8
EBENE_1
 62
   251
100
AcDbSpline
210
0.0
220
0.0
230
1.0
 70
     1
 71
     3
 72
    36
 73
    32
 74
     0
 42
0.0000000001
 43
0.0000000001
 40
0.0
 40
0.0
 40
0.0
 40
0.0
 40
0.125
 40
0.125
 40
0.125
 40
0.125
 40
0.25
 40
0.25
 40
0.25
 40
0.25
 40
0.375
 40
0.375
 40
0.375
 40
0.375
 40
0.5
 40
0.5
 40
0.5
 40
0.5
 40
0.625
 40
0.625
 40
0.625
 40
0.625
 40
0.75
 40
0.75
 40
0.75
 40
0.75
 40
0.875
 40
0.875
 40
0.875
 40
0.875
 40
1.0
 40
1.0
 40
1.0
 40
1.0
 10
22.948699999999999
 20
-75.883700000000005
 30
0.0
 10
22.948699999999999
 20
-75.883700000000005
 30
0.0
 10
29.6313
 20
-75.883700000000005
 30
0.0
 10
29.6313
 20
-75.883700000000005
 30
0.0
 10
29.6313
 20
-75.883700000000005
 30
0.0
 10
29.9941
 20
-75.883700000000005
 30
0.0
 10
30.289999999999999
 20
-76.109899999999996
 30
0.0
 10
30.289999999999999
 20
-76.387200000000007
 30
0.0
 10
30.289999999999999
 20
-76.387200000000007
 30
0.0
 10
30.289999999999999
 20
-76.387200000000007
 30
0.0
 10
30.289999999999999
 20
-78.980199999999996
 30
0.0
 10
30.289999999999999
 20
-78.980199999999996
 30
0.0
 10
30.289999999999999
 20
-78.980199999999996
 30
0.0
 10
30.289999999999999
 20
-79.257499999999993
 30
0.0
 10
29.9941
 20
-79.483699999999999
 30
0.0
 10
29.6313
 20
-79.483699999999999
 30
0.0
 10
29.6313
 20
-79.483699999999999
 30
0.0
 10
29.6313
 20
-79.483699999999999
 30
0.0
 10
22.948699999999999
 20
-79.483699999999999
 30
0.0
 10
22.948699999999999
 20
-79.483699999999999
 30
0.0
 10
22.948699999999999
 20
-79.483699999999999
 30
0.0
 10
22.585899999999999
 20
-79.483699999999999
 30
0.0
 10
22.289999999999999
 20
-79.257499999999993
 30
0.0
 10
22.289999999999999
 20
-78.980199999999996
 30
0.0
 10
22.289999999999999
 20
-78.980199999999996
 30
0.0
 10
22.289999999999999
 20
-78.980199999999996
 30
0.0
 10
22.289999999999999
 20
-76.387200000000007
 30
0.0
 10
22.289999999999999
 20
-76.387200000000007
 30
0.0
 10
22.289999999999999
 20
-76.387200000000007
 30
0.0
 10
22.289999999999999
 20
-76.109899999999996
 30
0.0
 10
22.585899999999999
 20
-75.883700000000005
 30
0.0
 10
22.948699999999999
 20
-75.883700000000005
 30
0.0
  0
SPLINE
  5
B7
100
AcDbEntity
  8
EBENE_1
 62
   251
100
AcDbSpline
210
0.0
220
0.0
230
1.0
 70
     1
 71
     3
 72
    36
 73
    32
 74
     0
 42
0.0000000001
 43
0.0000000001
 40
0.0
 40
0.0
 40
0.0
 40
0.0
 40
0.125
 40
0.125
 40
0.125
 40
0.125
 40
0.25
 40
0.25
 40
0.25
 40
0.25
 40
0.375
 40
0.375
 40
0.375
 40
0.375
 40
0.5
 40
0.5
 40
0.5
 40
0.5
 40
0.625
 40
0.625
 40
0.625
 40
0.625
 40
0.75
 40
0.75
 40
0.75
 40
0.75
 40
0.875
 40
0.875
 40
0.875
 40
0.875
 40
1.0
 40
1.0
 40
1.0
 40
1.0
 10
5.1737000000000002
 20
-75.883700000000005
 30
0.0
 10
5.1737000000000002
 20
-75.883700000000005
 30
0.0
 10
11.654500000000001
 20
-75.883700000000005
 30
0.0
 10
11.654500000000001
 20
-75.883700000000005
 30
0.0
 10
11.654500000000001
 20
-75.883700000000005
 30
0.0
 10
12.0726
 20
-75.883700000000005
 30
0.0
 10
12.414099999999999
 20
-76.1447
 30
0.0
 10
12.414099999999999
 20
-76.464299999999994
 30
0.0
 10
12.414099999999999
 20
-76.464299999999994
 30
0.0
 10
12.414099999999999
 20
-76.464299999999994
 30
0.0
 10
12.414099999999999
 20
-78.903099999999995
 30
0.0
 10
12.414099999999999
 20
-78.903099999999995
 30
0.0
 10
12.414099999999999
 20
-78.903099999999995
 30
0.0
 10
12.414099999999999
 20
-79.222700000000003
 30
0.0
 10
12.0726
 20
-79.483699999999999
 30
0.0
 10
11.654500000000001
 20
-79.483699999999999
 30
0.0
 10
11.654500000000001
 20
-79.483699999999999
 30
0.0
 10
11.654500000000001
 20
-79.483699999999999
 30
0.0
 10
5.1737000000000002
 20
-79.483699999999999
 30
0.0
 10
5.1737000000000002
 20
-79.483699999999999
 30
0.0
 10
5.1737000000000002
 20
-79.483699999999999
 30
0.0
 10
4.7556000000000003
 20
-79.483699999999999
 30
0.0
 10
4.4141000000000004
 20
-79.222700000000003
 30
0.0
 10
4.4141000000000004
 20
-78.903099999999995
 30
0.0
 10
4.4141000000000004
 20
-78.903099999999995
 30
0.0
 10
4.4141000000000004
 20
-78.903099999999995
 30
0.0
 10
4.4141000000000004
 20
-76.464299999999994
 30
0.0
 10
4.4141000000000004
 20
-76.464299999999994
 30
0.0
 10
4.4141000000000004
 20
-76.464299999999994
 30
0.0
 10
4.4141000000000004
 20
-76.1447
 30
0.0
 10
4.7556000000000003
 20
-75.883700000000005
 30
0.0
 10
5.1737000000000002
 20
-75.883700000000005
 30
0.0
  0
SPLINE
  5
B8
100
AcDbEntity
  8
EBENE_1
100
AcDbSpline
210
0.0
220
0.0
230
1.0
 70
     1
 71
     3
 72
    28
 73
    24
 74
     0
 42
0.0000000001
 43
0.0000000001
 40
0.0
 40
0.0
 40
0.0
 40
0.0
 40
0.1666666666666667
 40
0.1666666666666667
 40
0.1666666666666667
 40
0.1666666666666667
 40
0.3333333333333333
 40
0.3333333333333333
 40
0.3333333333333333
 40
0.3333333333333333
 40
0.5
 40
0.5
 40
0.5
 40
0.5
 40
0.6666666666666666
 40
0.6666666666666666
 40
0.6666666666666666
 40
0.6666666666666666
 40
0.8333333333333333
 40
0.8333333333333333
 40
0.8333333333333333
 40
0.8333333333333333
 40
1.0
 40
1.0
 40
1.0
 40
1.0
 10
27.289999999999999
 20
-75.883700000000005
 30
0.0
 10
27.289999999999999
 20
-75.883700000000005
 30
0.0
 10
27.289999999999999
 20
-73.198999999999998
 30
0.0
 10
27.289999999999999
 20
-73.198999999999998
 30
0.0
 10
27.289999999999999
 20
-73.198999999999998
 30
0.0
 10
27.289999999999999
 20
-72.530600000000007
 30
0.0
 10
26.84
 20
-71.983699999999999
 30
0.0
 10
26.289999999999999
 20
-71.983699999999999
 30
0.0
 10
26.289999999999999
 20
-71.983699999999999
 30
0.0
 10
26.289999999999999
 20
-71.983699999999999
 30
0.0
 10
26.289999999999999
 20
-71.983699999999999
 30
0.0
 10
26.289999999999999
 20
-71.983699999999999
 30
0.0
 10
26.289999999999999
 20
-71.983699999999999
 30
0.0
 10
25.739999999999998
 20
-71.983699999999999
 30
0.0
 10
25.289999999999999
 20
-72.530799999999999
 30
0.0
 10
25.289999999999999
 20
-73.198999999999998
 30
0.0
 10
25.289999999999999
 20
-73.198999999999998
 30
0.0
 10
25.289999999999999
 20
-73.198999999999998
 30
0.0
 10
25.289999999999999
 20
-75.883700000000005
 30
0.0
 10
25.289999999999999
 20
-75.883700000000005
 30
0.0
 10
25.289999999999999
 20
-75.883700000000005
 30
0.0
 10
25.289999999999999
 20
-75.883700000000005
 30
0.0
 10
27.289999999999999
 20
-75.883700000000005
 30
0.0
 10
27.289999999999999
 20
-75.883700000000005
 30
0.0
  0
SPLINE
  5
B9
100
AcDbEntity
  8
EBENE_1
100
AcDbSpline
210
0.0
220
0.0
230
1.0
 70
     1
 71
     3
 72
    28
 73
    24
 74
     0
 42
0.0000000001
 43
0.0000000001
 40
0.0
 40
0.0
 40
0.0
 40
0.0
 40
0.1666666666666667
 40
0.1666666666666667
 40
0.1666666666666667
 40
0.1666666666666667
 40
0.3333333333333333
 40
0.3333333333333333
 40
0.3333333333333333
 40
0.3333333333333333
 40
0.5
 40
0.5
 40
0.5
 40
0.5
 40
0.6666666666666666
 40
0.6666666666666666
 40
0.6666666666666666
 40
0.6666666666666666
 40
0.8333333333333333
 40
0.8333333333333333
 40
0.8333333333333333
 40
0.8333333333333333
 40
1.0
 40
1.0
 40
1.0
 40
1.0
 10
9.4140999999999995
 20
-75.883700000000005
 30
0.0
 10
9.4140999999999995
 20
-75.883700000000005
 30
0.0
 10
9.4140999999999995
 20
-73.198999999999998
 30
0.0
 10
9.4140999999999995
 20
-73.198999999999998
 30
0.0
 10
9.4140999999999995
 20
-73.198999999999998
 30
0.0
 10
9.4140999999999995
 20
-72.530600000000007
 30
0.0
 10
8.9641000000000002
 20
-71.983699999999999
 30
0.0
 10
8.4140999999999995
 20
-71.983699999999999
 30
0.0
 10
8.4140999999999995
 20
-71.983699999999999
 30
0.0
 10
8.4140999999999995
 20
-71.983699999999999
 30
0.0
 10
8.4140999999999995
 20
-71.983699999999999
 30
0.0
 10
8.4140999999999995
 20
-71.983699999999999
 30
0.0
 10
8.4140999999999995
 20
-71.983699999999999
 30
0.0
 10
7.8640999999999996
 20
-71.983699999999999
 30
0.0
 10
7.4141000000000004
 20
-72.530799999999999
 30
0.0
 10
7.4141000000000004
 20
-73.198999999999998
 30
0.0
 10
7.4141000000000004
 20
-73.198999999999998
 30
0.0
 10
7.4141000000000004
 20
-73.198999999999998
 30
0.0
 10
7.4141000000000004
 20
-75.883700000000005
 30
0.0
 10
7.4141000000000004
 20
-75.883700000000005
 30
0.0
 10
7.4141000000000004
 20
-75.883700000000005
 30
0.0
 10
7.4141000000000004
 20
-75.883700000000005
 30
0.0
 10
9.4140999999999995
 20
-75.883700000000005
 30
0.0
 10
9.4140999999999995
 20
-75.883700000000005
 30
0.0
  0
SPLINE
  5
BA
100
AcDbEntity
  8
EBENE_1
 62
   252
100
AcDbSpline
210
0.0
220
0.0
230
1.0
 70
     1
 71
     3
 72
    20
 73
    16
 74
     0
 42
0.0000000001
 43
0.0000000001
 40
0.0
 40
0.0
 40
0.0
 40
0.0
 40
0.25
 40
0.25
 40
0.25
 40
0.25
 40
0.5
 40
0.5
 40
0.5
 40
0.5
 40
0.75
 40
0.75
 40
0.75
 40
0.75
 40
1.0
 40
1.0
 40
1.0
 40
1.0
 10
85.596100000000007
 20
40.184699999999999
 30
0.0
 10
85.596100000000007
 20
97.552199999999999
 30
0.0
 10
70.140699999999995
 20
151.42150000000001
 30
0.0
 10
43.194000000000003
 20
197.8579
 30
0.0
 10
43.194000000000003
 20
197.8579
 30
0.0
 10
43.194000000000003
 20
197.8579
 30
0.0
 10
-14.079700000000001
 20
164.71340000000001
 30
0.0
 10
-14.079700000000001
 20
164.71340000000001
 30
0.0
 10
-14.079700000000001
 20
164.71340000000001
 30
0.0
 10
7.4862000000000002
 20
127.54949999999999
 30
0.0
 10
19.346299999999999
 20
86.096900000000005
 30
0.0
 10
19.346299999999999
 20
40.184699999999999
 30
0.0
 10
19.346299999999999
 20
40.184699999999999
 30
0.0
 10
19.346299999999999
 20
40.184699999999999
 30
0.0
 10
85.596100000000007
 20
40.184699999999999
 30
0.0
 10
85.596100000000007
 20
40.184699999999999
 30
0.0
  0
SPLINE
  5
BB
100
AcDbEntity
  8
EBENE_1
 62
   253
100
AcDbSpline
210
0.0
220
0.0
230
1.0
 70
     1
 71
     3
 72
    20
 73
    16
 74
     0
 42
0.0000000001
 43
0.0000000001
 40
0.0
 40
0.0
 40
0.0
 40
0.0
 40
0.25
 40
0.25
 40
0.25
 40
0.25
 40
0.5
 40
0.5
 40
0.5
 40
0.5
 40
0.75
 40
0.75
 40
0.75
 40
0.75
 40
1.0
 40
1.0
 40
1.0
 40
1.0
 10
74.551100000000005
 20
40.184699999999999
 30
0.0
 10
74.551100000000005
 20
97.552199999999999
 30
0.0
 10
60.3996
 20
145.77420000000001
 30
0.0
 10
33.4529
 20
192.2106
 30
0.0
 10
33.4529
 20
192.2106
 30
0.0
 10
33.4529
 20
192.2106
 30
0.0
 10
-3.3468
 20
170.85239999999999
 30
0.0
 10
-3.3468
 20
170.85239999999999
 30
0.0
 10
-3.3468
 20
170.85239999999999
 30
0.0
 10
18.219100000000001
 20
133.6885
 30
0.0
 10
31.053999999999998
 20
86.096900000000005
 30
0.0
 10
31.053999999999998
 20
40.184699999999999
 30
0.0
 10
31.053999999999998
 20
40.184699999999999
 30
0.0
 10
31.053999999999998
 20
40.184699999999999
 30
0.0
 10
74.551100000000005
 20
40.184699999999999
 30
0.0
 10
74.551100000000005
 20
40.184699999999999
 30
0.0
  0
SPLINE
  5
BC
100
AcDbEntity
  8
EBENE_1
100
AcDbSpline
210
0.0
220
0.0
230
1.0
 70
     1
 71
     3
 72
    20
 73
    16
 74
     0
 42
0.0000000001
 43
0.0000000001
 40
0.0
 40
0.0
 40
0.0
 40
0.0
 40
0.25
 40
0.25
 40
0.25
 40
0.25
 40
0.5
 40
0.5
 40
0.5
 40
0.5
 40
0.75
 40
0.75
 40
0.75
 40
0.75
 40
1.0
 40
1.0
 40
1.0
 40
1.0
 10
34.563600000000001
 20
56.913400000000003
 30
0.0
 10
34.563600000000001
 20
56.913400000000003
 30
0.0
 10
69.523099999999999
 20
58.5974
 30
0.0
 10
69.523099999999999
 20
58.5974
 30
0.0
 10
69.523099999999999
 20
58.5974
 30
0.0
 10
69.523099999999999
 20
58.5974
 30
0.0
 10
69.908000000000001
 20
50.606699999999996
 30
0.0
 10
69.908000000000001
 20
50.606699999999996
 30
0.0
 10
69.908000000000001
 20
50.606699999999996
 30
0.0
 10
69.908000000000001
 20
50.606699999999996
 30
0.0
 10
34.948599999999999
 20
48.922600000000003
 30
0.0
 10
34.948599999999999
 20
48.922600000000003
 30
0.0
 10
34.948599999999999
 20
48.922600000000003
 30
0.0
 10
34.948599999999999
 20
48.922600000000003
 30
0.0
 10
34.563600000000001
 20
56.913400000000003
 30
0.0
 10
34.563600000000001
 20
56.913400000000003
 30
0.0
  0
SPLINE
  5
BD
100
AcDbEntity
  8
EBENE_1
100
AcDbSpline
210
0.0
220
0.0
230
1.0
 70
     1
 71
     3
 72
    20
 73
    16
 74
     0
 42
0.0000000001
 43
0.0000000001
 40
0.0
 40
0.0
 40
0.0
 40
0.0
 40
0.25
 40
0.25
 40
0.25
 40
0.25
 40
0.5
 40
0.5
 40
0.5
 40
0.5
 40
0.75
 40
0.75
 40
0.75
 40
0.75
 40
1.0
 40
1.0
 40
1.0
 40
1.0
 10
4.0103999999999997
 20
164.69810000000001
 30
0.0
 10
4.0103999999999997
 20
164.69810000000001
 30
0.0
 10
35.149799999999999
 20
180.67740000000001
 30
0.0
 10
35.149799999999999
 20
180.67740000000001
 30
0.0
 10
35.149799999999999
 20
180.67740000000001
 30
0.0
 10
35.149799999999999
 20
180.67740000000001
 30
0.0
 10
38.802199999999999
 20
173.5598
 30
0.0
 10
38.802199999999999
 20
173.5598
 30
0.0
 10
38.802199999999999
 20
173.5598
 30
0.0
 10
38.802199999999999
 20
173.5598
 30
0.0
 10
7.6627999999999998
 20
157.5805
 30
0.0
 10
7.6627999999999998
 20
157.5805
 30
0.0
 10
7.6627999999999998
 20
157.5805
 30
0.0
 10
7.6627999999999998
 20
157.5805
 30
0.0
 10
4.0103999999999997
 20
164.69810000000001
 30
0.0
 10
4.0103999999999997
 20
164.69810000000001
 30
0.0
  0
SPLINE
  5
BE
100
AcDbEntity
  8
EBENE_1
100
AcDbSpline
210
0.0
220
0.0
230
1.0
 70
     1
 71
     3
 72
    20
 73
    16
 74
     0
 42
0.0000000001
 43
0.0000000001
 40
0.0
 40
0.0
 40
0.0
 40
0.0
 40
0.25
 40
0.25
 40
0.25
 40
0.25
 40
0.5
 40
0.5
 40
0.5
 40
0.5
 40
0.75
 40
0.75
 40
0.75
 40
0.75
 40
1.0
 40
1.0
 40
1.0
 40
1.0
 10
29.4588
 20
94.523899999999998
 30
0.0
 10
29.4588
 20
94.523899999999998
 30
0.0
 10
63.819000000000003
 20
101.18510000000001
 30
0.0
 10
63.819000000000003
 20
101.18510000000001
 30
0.0
 10
63.819000000000003
 20
101.18510000000001
 30
0.0
 10
63.819000000000003
 20
101.18510000000001
 30
0.0
 10
65.3416
 20
93.331299999999999
 30
0.0
 10
65.3416
 20
93.331299999999999
 30
0.0
 10
65.3416
 20
93.331299999999999
 30
0.0
 10
65.3416
 20
93.331299999999999
 30
0.0
 10
30.981300000000001
 20
86.670100000000005
 30
0.0
 10
30.981300000000001
 20
86.670100000000005
 30
0.0
 10
30.981300000000001
 20
86.670100000000005
 30
0.0
 10
30.981300000000001
 20
86.670100000000005
 30
0.0
 10
29.4588
 20
94.523899999999998
 30
0.0
 10
29.4588
 20
94.523899999999998
 30
0.0
  0
SPLINE
  5
BF
100
AcDbEntity
  8
EBENE_1
100
AcDbSpline
210
0.0
220
0.0
230
1.0
 70
     1
 71
     3
 72
    20
 73
    16
 74
     0
 42
0.0000000001
 43
0.0000000001
 40
0.0
 40
0.0
 40
0.0
 40
0.0
 40
0.25
 40
0.25
 40
0.25
 40
0.25
 40
0.5
 40
0.5
 40
0.5
 40
0.5
 40
0.75
 40
0.75
 40
0.75
 40
0.75
 40
1.0
 40
1.0
 40
1.0
 40
1.0
 10
19.066099999999999
 20
130.9289
 30
0.0
 10
19.066099999999999
 20
130.9289
 30
0.0
 10
52.1265
 20
142.41849999999999
 30
0.0
 10
52.1265
 20
142.41849999999999
 30
0.0
 10
52.1265
 20
142.41849999999999
 30
0.0
 10
52.1265
 20
142.41849999999999
 30
0.0
 10
54.752699999999997
 20
134.86189999999999
 30
0.0
 10
54.752699999999997
 20
134.86189999999999
 30
0.0
 10
54.752699999999997
 20
134.86189999999999
 30
0.0
 10
54.752699999999997
 20
134.86189999999999
 30
0.0
 10
21.692299999999999
 20
123.3723
 30
0.0
 10
21.692299999999999
 20
123.3723
 30
0.0
 10
21.692299999999999
 20
123.3723
 30
0.0
 10
21.692299999999999
 20
123.3723
 30
0.0
 10
19.066099999999999
 20
130.9289
 30
0.0
 10
19.066099999999999
 20
130.9289
 30
0.0
  0
SPLINE
  5
C0
100
AcDbEntity
  8
EBENE_1
 62
   251
100
AcDbSpline
210
0.0
220
0.0
230
1.0
 70
     1
 71
     3
 72
    20
 73
    16
 74
     0
 42
0.0000000001
 43
0.0000000001
 40
0.0
 40
0.0
 40
0.0
 40
0.0
 40
0.25
 40
0.25
 40
0.25
 40
0.25
 40
0.5
 40
0.5
 40
0.5
 40
0.5
 40
0.75
 40
0.75
 40
0.75
 40
0.75
 40
1.0
 40
1.0
 40
1.0
 40
1.0
 10
47.346699999999998
 20
40.168799999999997
 30
0.0
 10
47.346699999999998
 20
90.581199999999995
 30
0.0
 10
33.765000000000001
 20
137.9196
 30
0.0
 10
10.0853
 20
178.72630000000001
 30
0.0
 10
10.0853
 20
178.72630000000001
 30
0.0
 10
10.0853
 20
178.72630000000001
 30
0.0
 10
3.1602999999999999
 20
174.72810000000001
 30
0.0
 10
3.1602999999999999
 20
174.72810000000001
 30
0.0
 10
3.1602999999999999
 20
174.72810000000001
 30
0.0
 10
26.156700000000001
 20
135.09889999999999
 30
0.0
 10
39.346699999999998
 20
89.126599999999996
 30
0.0
 10
39.346699999999998
 20
40.168799999999997
 30
0.0
 10
39.346699999999998
 20
40.168799999999997
 30
0.0
 10
39.346699999999998
 20
40.168799999999997
 30
0.0
 10
47.346699999999998
 20
40.168799999999997
 30
0.0
 10
47.346699999999998
 20
40.168799999999997
 30
0.0
  0
SPLINE
  5
C1
100
AcDbEntity
  8
EBENE_1
100
AcDbSpline
210
0.0
220
0.0
230
1.0
 70
     1
 71
     3
 72
    20
 73
    16
 74
     0
 42
0.0000000001
 43
0.0000000001
 40
0.0
 40
0.0
 40
0.0
 40
0.0
 40
0.25
 40
0.25
 40
0.25
 40
0.25
 40
0.5
 40
0.5
 40
0.5
 40
0.5
 40
0.75
 40
0.75
 40
0.75
 40
0.75
 40
1.0
 40
1.0
 40
1.0
 40
1.0
 10
44.346699999999998
 20
40.168799999999997
 30
0.0
 10
44.346699999999998
 20
90.035700000000006
 30
0.0
 10
30.911799999999999
 20
136.86189999999999
 30
0.0
 10
7.4884000000000004
 20
177.227
 30
0.0
 10
7.4884000000000004
 20
177.227
 30
0.0
 10
7.4884000000000004
 20
177.227
 30
0.0
 10
5.7572000000000001
 20
176.22749999999999
 30
0.0
 10
5.7572000000000001
 20
176.22749999999999
 30
0.0
 10
5.7572000000000001
 20
176.22749999999999
 30
0.0
 10
29.009899999999998
 20
136.1568
 30
0.0
 10
42.346699999999998
 20
89.6721
 30
0.0
 10
42.346699999999998
 20
40.168799999999997
 30
0.0
 10
42.346699999999998
 20
40.168799999999997
 30
0.0
 10
42.346699999999998
 20
40.168799999999997
 30
0.0
 10
44.346699999999998
 20
40.168799999999997
 30
0.0
 10
44.346699999999998
 20
40.168799999999997
 30
0.0
  0
SPLINE
  5
C2
100
AcDbEntity
  8
EBENE_1
 62
   251
100
AcDbSpline
210
0.0
220
0.0
230
1.0
 70
     1
 71
     3
 72
    20
 73
    16
 74
     0
 42
0.0000000001
 43
0.0000000001
 40
0.0
 40
0.0
 40
0.0
 40
0.0
 40
0.25
 40
0.25
 40
0.25
 40
0.25
 40
0.5
 40
0.5
 40
0.5
 40
0.5
 40
0.75
 40
0.75
 40
0.75
 40
0.75
 40
1.0
 40
1.0
 40
1.0
 40
1.0
 10
65.846699999999998
 20
40.168799999999997
 30
0.0
 10
65.846699999999998
 20
93.945099999999996
 30
0.0
 10
51.358699999999999
 20
144.44229999999999
 30
0.0
 10
26.0989
 20
187.9718
 30
0.0
 10
26.0989
 20
187.9718
 30
0.0
 10
26.0989
 20
187.9718
 30
0.0
 10
19.173999999999999
 20
183.97370000000001
 30
0.0
 10
19.173999999999999
 20
183.97370000000001
 30
0.0
 10
19.173999999999999
 20
183.97370000000001
 30
0.0
 10
43.750500000000002
 20
141.6216
 30
0.0
 10
57.846699999999998
 20
92.490499999999997
 30
0.0
 10
57.846699999999998
 20
40.168799999999997
 30
0.0
 10
57.846699999999998
 20
40.168799999999997
 30
0.0
 10
57.846699999999998
 20
40.168799999999997
 30
0.0
 10
65.846699999999998
 20
40.168799999999997
 30
0.0
 10
65.846699999999998
 20
40.168799999999997
 30
0.0
  0
SPLINE
  5
C3
100
AcDbEntity
  8
EBENE_1
100
AcDbSpline
210
0.0
220
0.0
230
1.0
 70
     1
 71
     3
 72
    20
 73
    16
 74
     0
 42
0.0000000001
 43
0.0000000001
 40
0.0
 40
0.0
 40
0.0
 40
0.0
 40
0.25
 40
0.25
 40
0.25
 40
0.25
 40
0.5
 40
0.5
 40
0.5
 40
0.5
 40
0.75
 40
0.75
 40
0.75
 40
0.75
 40
1.0
 40
1.0
 40
1.0
 40
1.0
 10
60.846699999999998
 20
40.168799999999997
 30
0.0
 10
60.846699999999998
 20
93.036000000000001
 30
0.0
 10
46.603700000000003
 20
142.67930000000001
 30
0.0
 10
21.770900000000001
 20
185.47300000000001
 30
0.0
 10
21.770900000000001
 20
185.47300000000001
 30
0.0
 10
21.770900000000001
 20
185.47300000000001
 30
0.0
 10
23.502099999999999
 20
186.4725
 30
0.0
 10
23.502099999999999
 20
186.4725
 30
0.0
 10
23.502099999999999
 20
186.4725
 30
0.0
 10
48.505699999999997
 20
143.3844
 30
0.0
 10
62.846699999999998
 20
93.399600000000007
 30
0.0
 10
62.846699999999998
 20
40.168799999999997
 30
0.0
 10
62.846699999999998
 20
40.168799999999997
 30
0.0
 10
62.846699999999998
 20
40.168799999999997
 30
0.0
 10
60.846699999999998
 20
40.168799999999997
 30
0.0
 10
60.846699999999998
 20
40.168799999999997
 30
0.0
  0
SPLINE
  5
C4
100
AcDbEntity
  8
EBENE_1
100
AcDbSpline
210
0.0
220
0.0
230
1.0
 70
     0
 71
     3
 72
     8
 73
     4
 74
     0
 42
0.0000000001
 43
0.0000000001
 40
0.0
 40
0.0
 40
0.0
 40
0.0
 40
1.0
 40
1.0
 40
1.0
 40
1.0
 10
52.5961
 20
40.184699999999999
 30
0.0
 10
52.5961
 20
91.5518
 30
0.0
 10
38.757199999999997
 20
139.78649999999999
 30
0.0
 10
14.629099999999999
 20
181.36590000000001
 30
0.0
  0
LWPOLYLINE
  5
C5
100
AcDbEntity
  8
EBENE_1
 62
   252
100
AcDbPolyline
 90
        5
 70
     1
 10
161.434
 20
40.1637
 10
212.434
 20
40.1637
 10
212.434
 20
110.1289
 10
161.434
 20
110.1289
 10
161.434
 20
40.1637
  0
LWPOLYLINE
  5
C6
100
AcDbEntity
  8
EBENE_1
 62
   253
100
AcDbPolyline
 90
        5
 70
     1
 10
165.1839
 20
40.1637
 10
208.6841
 20
40.1637
 10
208.6841
 20
110.1289
 10
165.1839
 20
110.1289
 10
165.1839
 20
40.1637
  0
SPLINE
  5
C7
100
AcDbEntity
  8
EBENE_1
100
AcDbSpline
210
0.0
220
0.0
230
1.0
 70
     1
 71
     3
 72
    20
 73
    16
 74
     0
 42
0.0000000001
 43
0.0000000001
 40
0.0
 40
0.0
 40
0.0
 40
0.0
 40
0.25
 40
0.25
 40
0.25
 40
0.25
 40
0.5
 40
0.5
 40
0.5
 40
0.5
 40
0.75
 40
0.75
 40
0.75
 40
0.75
 40
1.0
 40
1.0
 40
1.0
 40
1.0
 10
169.434
 20
98.063800000000001
 30
0.0
 10
169.434
 20
98.063800000000001
 30
0.0
 10
204.434
 20
98.063800000000001
 30
0.0
 10
204.434
 20
98.063800000000001
 30
0.0
 10
204.434
 20
98.063800000000001
 30
0.0
 10
204.434
 20
98.063800000000001
 30
0.0
 10
204.434
 20
90.063800000000001
 30
0.0
 10
204.434
 20
90.063800000000001
 30
0.0
 10
204.434
 20
90.063800000000001
 30
0.0
 10
204.434
 20
90.063800000000001
 30
0.0
 10
169.434
 20
90.063800000000001
 30
0.0
 10
169.434
 20
90.063800000000001
 30
0.0
 10
169.434
 20
90.063800000000001
 30
0.0
 10
169.434
 20
90.063800000000001
 30
0.0
 10
169.434
 20
98.063800000000001
 30
0.0
 10
169.434
 20
98.063800000000001
 30
0.0
  0
SPLINE
  5
C8
100
AcDbEntity
  8
EBENE_1
100
AcDbSpline
210
0.0
220
0.0
230
1.0
 70
     1
 71
     3
 72
    20
 73
    16
 74
     0
 42
0.0000000001
 43
0.0000000001
 40
0.0
 40
0.0
 40
0.0
 40
0.0
 40
0.25
 40
0.25
 40
0.25
 40
0.25
 40
0.5
 40
0.5
 40
0.5
 40
0.5
 40
0.75
 40
0.75
 40
0.75
 40
0.75
 40
1.0
 40
1.0
 40
1.0
 40
1.0
 10
169.434
 20
60.263800000000003
 30
0.0
 10
169.434
 20
60.263800000000003
 30
0.0
 10
204.434
 20
60.263800000000003
 30
0.0
 10
204.434
 20
60.263800000000003
 30
0.0
 10
204.434
 20
60.263800000000003
 30
0.0
 10
204.434
 20
60.263800000000003
 30
0.0
 10
204.434
 20
52.263800000000003
 30
0.0
 10
204.434
 20
52.263800000000003
 30
0.0
 10
204.434
 20
52.263800000000003
 30
0.0
 10
204.434
 20
52.263800000000003
 30
0.0
 10
169.434
 20
52.263800000000003
 30
0.0
 10
169.434
 20
52.263800000000003
 30
0.0
 10
169.434
 20
52.263800000000003
 30
0.0
 10
169.434
 20
52.263800000000003
 30
0.0
 10
169.434
 20
60.263800000000003
 30
0.0
 10
169.434
 20
60.263800000000003
 30
0.0
  0
LWPOLYLINE
  5
C9
100
AcDbEntity
  8
EBENE_1
 62
   251
100
AcDbPolyline
 90
        5
 70
     1
 10
173.6836
 20
40.1289
 10
181.6836
 20
40.1289
 10
181.6836
 20
110.0941
 10
173.6836
 20
110.0941
 10
173.6836
 20
40.1289
  0
LWPOLYLINE
  5
CA
100
AcDbEntity
  8
EBENE_1
 62
   251
100
AcDbPolyline
 90
        5
 70
     1
 10
192.1836
 20
40.1289
 10
200.1836
 20
40.1289
 10
200.1836
 20
110.0941
 10
192.1836
 20
110.0941
 10
192.1836
 20
40.1289
  0
SPLINE
  5
CB
100
AcDbEntity
  8
EBENE_1
100
AcDbSpline
210
0.0
220
0.0
230
1.0
 70
     0
 71
     3
 72
     8
 73
     4
 74
     0
 42
0.0000000001
 43
0.0000000001
 40
0.0
 40
0.0
 40
0.0
 40
0.0
 40
1.0
 40
1.0
 40
1.0
 40
1.0
 10
186.934
 20
40.128900000000002
 30
0.0
 10
186.934
 20
40.128900000000002
 30
0.0
 10
186.934
 20
110.0941
 30
0.0
 10
186.934
 20
110.0941
 30
0.0
  0
LWPOLYLINE
  5
CC
100
AcDbEntity
  8
EBENE_1
100
AcDbPolyline
 90
        5
 70
     1
 10
176.684
 20
40.1289
 10
178.684
 20
40.1289
 10
178.684
 20
110.0941
 10
176.684
 20
110.0941
 10
176.684
 20
40.1289
  0
LWPOLYLINE
  5
CD
100
AcDbEntity
  8
EBENE_1
100
AcDbPolyline
 90
        5
 70
     1
 10
195.184
 20
40.1289
 10
197.184
 20
40.1289
 10
197.184
 20
110.0941
 10
195.184
 20
110.0941
 10
195.184
 20
40.1289
  0
SPLINE
  5
CE
100
AcDbEntity
  8
EBENE_1
 62
   252
100
AcDbSpline
210
0.0
220
0.0
230
1.0
 70
     1
 71
     3
 72
    52
 73
    48
 74
     0
 42
0.0000000001
 43
0.0000000001
 40
0.0
 40
0.0
 40
0.0
 40
0.0
 40
0.0833333333333333
 40
0.0833333333333333
 40
0.0833333333333333
 40
0.0833333333333333
 40
0.1666666666666667
 40
0.1666666666666667
 40
0.1666666666666667
 40
0.1666666666666667
 40
0.25
 40
0.25
 40
0.25
 40
0.25
 40
0.3333333333333333
 40
0.3333333333333333
 40
0.3333333333333333
 40
0.3333333333333333
 40
0.4166666666666666
 40
0.4166666666666666
 40
0.4166666666666666
 40
0.4166666666666666
 40
0.4999999999999999
 40
0.4999999999999999
 40
0.4999999999999999
 40
0.4999999999999999
 40
0.5833333333333333
 40
0.5833333333333333
 40
0.5833333333333333
 40
0.5833333333333333
 40
0.6666666666666666
 40
0.6666666666666666
 40
0.6666666666666666
 40
0.6666666666666666
 40
0.75
 40
0.75
 40
0.75
 40
0.75
 40
0.8333333333333334
 40
0.8333333333333334
 40
0.8333333333333334
 40
0.8333333333333334
 40
0.9166666666666667
 40
0.9166666666666667
 40
0.9166666666666667
 40
0.9166666666666667
 40
1.0
 40
1.0
 40
1.0
 40
1.0
 10
-165.2199
 20
84.594200000000001
 30
0.0
 10
-165.2199
 20
84.594200000000001
 30
0.0
 10
-165.2199
 20
135.5942
 30
0.0
 10
-165.2199
 20
135.5942
 30
0.0
 10
-165.2199
 20
135.5942
 30
0.0
 10
-165.2199
 20
135.5942
 30
0.0
 10
-120.685
 20
135.5942
 30
0.0
 10
-120.685
 20
135.5942
 30
0.0
 10
-120.685
 20
135.5942
 30
0.0
 10
-120.685
 20
135.5942
 30
0.0
 10
-120.685
 20
180.12909999999999
 30
0.0
 10
-120.685
 20
180.12909999999999
 30
0.0
 10
-120.685
 20
180.12909999999999
 30
0.0
 10
-120.685
 20
180.12909999999999
 30
0.0
 10
-69.685000000000002
 20
180.12909999999999
 30
0.0
 10
-69.685000000000002
 20
180.12909999999999
 30
0.0
 10
-69.685000000000002
 20
180.12909999999999
 30
0.0
 10
-69.685000000000002
 20
180.12909999999999
 30
0.0
 10
-69.685000000000002
 20
135.5942
 30
0.0
 10
-69.685000000000002
 20
135.5942
 30
0.0
 10
-69.685000000000002
 20
135.5942
 30
0.0
 10
-69.685000000000002
 20
135.5942
 30
0.0
 10
-25.219899999999999
 20
135.5942
 30
0.0
 10
-25.219899999999999
 20
135.5942
 30
0.0
 10
-25.219899999999999
 20
135.5942
 30
0.0
 10
-25.219899999999999
 20
135.5942
 30
0.0
 10
-25.219899999999999
 20
84.594200000000001
 30
0.0
 10
-25.219899999999999
 20
84.594200000000001
 30
0.0
 10
-25.219899999999999
 20
84.594200000000001
 30
0.0
 10
-25.219899999999999
 20
84.594200000000001
 30
0.0
 10
-69.685000000000002
 20
84.594200000000001
 30
0.0
 10
-69.685000000000002
 20
84.594200000000001
 30
0.0
 10
-69.685000000000002
 20
84.594200000000001
 30
0.0
 10
-69.685000000000002
 20
84.594200000000001
 30
0.0
 10
-69.685000000000002
 20
40.129100000000001
 30
0.0
 10
-69.685000000000002
 20
40.129100000000001
 30
0.0
 10
-69.685000000000002
 20
40.129100000000001
 30
0.0
 10
-69.685000000000002
 20
40.129100000000001
 30
0.0
 10
-120.685
 20
40.129100000000001
 30
0.0
 10
-120.685
 20
40.129100000000001
 30
0.0
 10
-120.685
 20
40.129100000000001
 30
0.0
 10
-120.685
 20
40.129100000000001
 30
0.0
 10
-120.685
 20
84.594200000000001
 30
0.0
 10
-120.685
 20
84.594200000000001
 30
0.0
 10
-120.685
 20
84.594200000000001
 30
0.0
 10
-120.685
 20
84.594200000000001
 30
0.0
 10
-165.2199
 20
84.594200000000001
 30
0.0
 10
-165.2199
 20
84.594200000000001
 30
0.0
  0
SPLINE
  5
CF
100
AcDbEntity
  8
EBENE_1
 62
   253
100
AcDbSpline
210
0.0
220
0.0
230
1.0
 70
     1
 71
     3
 72
    52
 73
    48
 74
     0
 42
0.0000000001
 43
0.0000000001
 40
0.0
 40
0.0
 40
0.0
 40
0.0
 40
0.0833333333333333
 40
0.0833333333333333
 40
0.0833333333333333
 40
0.0833333333333333
 40
0.1666666666666667
 40
0.1666666666666667
 40
0.1666666666666667
 40
0.1666666666666667
 40
0.25
 40
0.25
 40
0.25
 40
0.25
 40
0.3333333333333333
 40
0.3333333333333333
 40
0.3333333333333333
 40
0.3333333333333333
 40
0.4166666666666666
 40
0.4166666666666666
 40
0.4166666666666666
 40
0.4166666666666666
 40
0.4999999999999999
 40
0.4999999999999999
 40
0.4999999999999999
 40
0.4999999999999999
 40
0.5833333333333333
 40
0.5833333333333333
 40
0.5833333333333333
 40
0.5833333333333333
 40
0.6666666666666666
 40
0.6666666666666666
 40
0.6666666666666666
 40
0.6666666666666666
 40
0.75
 40
0.75
 40
0.75
 40
0.75
 40
0.8333333333333334
 40
0.8333333333333334
 40
0.8333333333333334
 40
0.8333333333333334
 40
0.9166666666666667
 40
0.9166666666666667
 40
0.9166666666666667
 40
0.9166666666666667
 40
1.0
 40
1.0
 40
1.0
 40
1.0
 10
-165.2199
 20
88.344200000000001
 30
0.0
 10
-165.2199
 20
88.344200000000001
 30
0.0
 10
-165.2199
 20
131.8442
 30
0.0
 10
-165.2199
 20
131.8442
 30
0.0
 10
-165.2199
 20
131.8442
 30
0.0
 10
-165.2199
 20
131.8442
 30
0.0
 10
-116.935
 20
131.8442
 30
0.0
 10
-116.935
 20
131.8442
 30
0.0
 10
-116.935
 20
131.8442
 30
0.0
 10
-116.935
 20
131.8442
 30
0.0
 10
-116.935
 20
180.12909999999999
 30
0.0
 10
-116.935
 20
180.12909999999999
 30
0.0
 10
-116.935
 20
180.12909999999999
 30
0.0
 10
-116.935
 20
180.12909999999999
 30
0.0
 10
-73.435000000000002
 20
180.12909999999999
 30
0.0
 10
-73.435000000000002
 20
180.12909999999999
 30
0.0
 10
-73.435000000000002
 20
180.12909999999999
 30
0.0
 10
-73.435000000000002
 20
180.12909999999999
 30
0.0
 10
-73.435000000000002
 20
131.8442
 30
0.0
 10
-73.435000000000002
 20
131.8442
 30
0.0
 10
-73.435000000000002
 20
131.8442
 30
0.0
 10
-73.435000000000002
 20
131.8442
 30
0.0
 10
-25.219899999999999
 20
131.8442
 30
0.0
 10
-25.219899999999999
 20
131.8442
 30
0.0
 10
-25.219899999999999
 20
131.8442
 30
0.0
 10
-25.219899999999999
 20
131.8442
 30
0.0
 10
-25.219899999999999
 20
88.344200000000001
 30
0.0
 10
-25.219899999999999
 20
88.344200000000001
 30
0.0
 10
-25.219899999999999
 20
88.344200000000001
 30
0.0
 10
-25.219899999999999
 20
88.344200000000001
 30
0.0
 10
-73.435000000000002
 20
88.344200000000001
 30
0.0
 10
-73.435000000000002
 20
88.344200000000001
 30
0.0
 10
-73.435000000000002
 20
88.344200000000001
 30
0.0
 10
-73.435000000000002
 20
88.344200000000001
 30
0.0
 10
-73.435000000000002
 20
40.129100000000001
 30
0.0
 10
-73.435000000000002
 20
40.129100000000001
 30
0.0
 10
-73.435000000000002
 20
40.129100000000001
 30
0.0
 10
-73.435000000000002
 20
40.129100000000001
 30
0.0
 10
-116.935
 20
40.129100000000001
 30
0.0
 10
-116.935
 20
40.129100000000001
 30
0.0
 10
-116.935
 20
40.129100000000001
 30
0.0
 10
-116.935
 20
40.129100000000001
 30
0.0
 10
-116.935
 20
88.344200000000001
 30
0.0
 10
-116.935
 20
88.344200000000001
 30
0.0
 10
-116.935
 20
88.344200000000001
 30
0.0
 10
-116.935
 20
88.344200000000001
 30
0.0
 10
-165.2199
 20
88.344200000000001
 30
0.0
 10
-165.2199
 20
88.344200000000001
 30
0.0
  0
SPLINE
  5
D0
100
AcDbEntity
  8
EBENE_1
100
AcDbSpline
210
0.0
220
0.0
230
1.0
 70
     1
 71
     3
 72
    20
 73
    16
 74
     0
 42
0.0000000001
 43
0.0000000001
 40
0.0
 40
0.0
 40
0.0
 40
0.0
 40
0.25
 40
0.25
 40
0.25
 40
0.25
 40
0.5
 40
0.5
 40
0.5
 40
0.5
 40
0.75
 40
0.75
 40
0.75
 40
0.75
 40
1.0
 40
1.0
 40
1.0
 40
1.0
 10
-112.685
 20
170.82910000000001
 30
0.0
 10
-112.685
 20
170.82910000000001
 30
0.0
 10
-77.685000000000002
 20
170.82910000000001
 30
0.0
 10
-77.685000000000002
 20
170.82910000000001
 30
0.0
 10
-77.685000000000002
 20
170.82910000000001
 30
0.0
 10
-77.685000000000002
 20
170.82910000000001
 30
0.0
 10
-77.685000000000002
 20
162.82910000000001
 30
0.0
 10
-77.685000000000002
 20
162.82910000000001
 30
0.0
 10
-77.685000000000002
 20
162.82910000000001
 30
0.0
 10
-77.685000000000002
 20
162.82910000000001
 30
0.0
 10
-112.685
 20
162.82910000000001
 30
0.0
 10
-112.685
 20
162.82910000000001
 30
0.0
 10
-112.685
 20
162.82910000000001
 30
0.0
 10
-112.685
 20
162.82910000000001
 30
0.0
 10
-112.685
 20
170.82910000000001
 30
0.0
 10
-112.685
 20
170.82910000000001
 30
0.0
  0
SPLINE
  5
D1
100
AcDbEntity
  8
EBENE_1
100
AcDbSpline
210
0.0
220
0.0
230
1.0
 70
     1
 71
     3
 72
    20
 73
    16
 74
     0
 42
0.0000000001
 43
0.0000000001
 40
0.0
 40
0.0
 40
0.0
 40
0.0
 40
0.25
 40
0.25
 40
0.25
 40
0.25
 40
0.5
 40
0.5
 40
0.5
 40
0.5
 40
0.75
 40
0.75
 40
0.75
 40
0.75
 40
1.0
 40
1.0
 40
1.0
 40
1.0
 10
-112.685
 20
57.429099999999998
 30
0.0
 10
-112.685
 20
57.429099999999998
 30
0.0
 10
-77.685000000000002
 20
57.429099999999998
 30
0.0
 10
-77.685000000000002
 20
57.429099999999998
 30
0.0
 10
-77.685000000000002
 20
57.429099999999998
 30
0.0
 10
-77.685000000000002
 20
57.429099999999998
 30
0.0
 10
-77.685000000000002
 20
49.429099999999998
 30
0.0
 10
-77.685000000000002
 20
49.429099999999998
 30
0.0
 10
-77.685000000000002
 20
49.429099999999998
 30
0.0
 10
-77.685000000000002
 20
49.429099999999998
 30
0.0
 10
-112.685
 20
49.429099999999998
 30
0.0
 10
-112.685
 20
49.429099999999998
 30
0.0
 10
-112.685
 20
49.429099999999998
 30
0.0
 10
-112.685
 20
49.429099999999998
 30
0.0
 10
-112.685
 20
57.429099999999998
 30
0.0
 10
-112.685
 20
57.429099999999998
 30
0.0
  0
SPLINE
  5
D2
100
AcDbEntity
  8
EBENE_1
100
AcDbSpline
210
0.0
220
0.0
230
1.0
 70
     1
 71
     3
 72
    20
 73
    16
 74
     0
 42
0.0000000001
 43
0.0000000001
 40
0.0
 40
0.0
 40
0.0
 40
0.0
 40
0.25
 40
0.25
 40
0.25
 40
0.25
 40
0.5
 40
0.5
 40
0.5
 40
0.5
 40
0.75
 40
0.75
 40
0.75
 40
0.75
 40
1.0
 40
1.0
 40
1.0
 40
1.0
 10
-155.91990000000001
 20
92.594200000000001
 30
0.0
 10
-155.91990000000001
 20
92.594200000000001
 30
0.0
 10
-155.91990000000001
 20
127.5942
 30
0.0
 10
-155.91990000000001
 20
127.5942
 30
0.0
 10
-155.91990000000001
 20
127.5942
 30
0.0
 10
-155.91990000000001
 20
127.5942
 30
0.0
 10
-147.91990000000001
 20
127.5942
 30
0.0
 10
-147.91990000000001
 20
127.5942
 30
0.0
 10
-147.91990000000001
 20
127.5942
 30
0.0
 10
-147.91990000000001
 20
127.5942
 30
0.0
 10
-147.91990000000001
 20
92.594200000000001
 30
0.0
 10
-147.91990000000001
 20
92.594200000000001
 30
0.0
 10
-147.91990000000001
 20
92.594200000000001
 30
0.0
 10
-147.91990000000001
 20
92.594200000000001
 30
0.0
 10
-155.91990000000001
 20
92.594200000000001
 30
0.0
 10
-155.91990000000001
 20
92.594200000000001
 30
0.0
  0
SPLINE
  5
D3
100
AcDbEntity
  8
EBENE_1
100
AcDbSpline
210
0.0
220
0.0
230
1.0
 70
     1
 71
     3
 72
    20
 73
    16
 74
     0
 42
0.0000000001
 43
0.0000000001
 40
0.0
 40
0.0
 40
0.0
 40
0.0
 40
0.25
 40
0.25
 40
0.25
 40
0.25
 40
0.5
 40
0.5
 40
0.5
 40
0.5
 40
0.75
 40
0.75
 40
0.75
 40
0.75
 40
1.0
 40
1.0
 40
1.0
 40
1.0
 10
-42.5199
 20
92.594200000000001
 30
0.0
 10
-42.5199
 20
92.594200000000001
 30
0.0
 10
-42.5199
 20
127.5942
 30
0.0
 10
-42.5199
 20
127.5942
 30
0.0
 10
-42.5199
 20
127.5942
 30
0.0
 10
-42.5199
 20
127.5942
 30
0.0
 10
-34.5199
 20
127.5942
 30
0.0
 10
-34.5199
 20
127.5942
 30
0.0
 10
-34.5199
 20
127.5942
 30
0.0
 10
-34.5199
 20
127.5942
 30
0.0
 10
-34.5199
 20
92.594200000000001
 30
0.0
 10
-34.5199
 20
92.594200000000001
 30
0.0
 10
-34.5199
 20
92.594200000000001
 30
0.0
 10
-34.5199
 20
92.594200000000001
 30
0.0
 10
-42.5199
 20
92.594200000000001
 30
0.0
 10
-42.5199
 20
92.594200000000001
 30
0.0
  0
LWPOLYLINE
  5
D4
100
AcDbEntity
  8
EBENE_1
 62
   251
100
AcDbPolyline
 90
        5
 70
     1
 10
-108.4699
 20
40.1291
 10
-100.4699
 20
40.1291
 10
-100.4699
 20
180.1291
 10
-108.4699
 20
180.1291
 10
-108.4699
 20
40.1291
  0
LWPOLYLINE
  5
D5
100
AcDbEntity
  8
EBENE_1
100
AcDbPolyline
 90
        5
 70
     1
 10
-105.4695
 20
40.1291
 10
-103.4695
 20
40.1291
 10
-103.4695
 20
180.1291
 10
-105.4695
 20
180.1291
 10
-105.4695
 20
40.1291
  0
LWPOLYLINE
  5
D6
100
AcDbEntity
  8
EBENE_1
 62
   251
100
AcDbPolyline
 90
        5
 70
     1
 10
-89.9699
 20
40.1291
 10
-81.9699
 20
40.1291
 10
-81.9699
 20
180.1291
 10
-89.9699
 20
180.1291
 10
-89.9699
 20
40.1291
  0
LWPOLYLINE
  5
D7
100
AcDbEntity
  8
EBENE_1
100
AcDbPolyline
 90
        5
 70
     1
 10
-86.9695
 20
40.1291
 10
-84.9695
 20
40.1291
 10
-84.9695
 20
180.1291
 10
-86.9695
 20
180.1291
 10
-86.9695
 20
40.1291
  0
SPLINE
  5
D8
100
AcDbEntity
  8
EBENE_1
 62
   251
100
AcDbSpline
210
0.0
220
0.0
230
1.0
 70
     1
 71
     3
 72
    20
 73
    16
 74
     0
 42
0.0000000001
 43
0.0000000001
 40
0.0
 40
0.0
 40
0.0
 40
0.0
 40
0.25
 40
0.25
 40
0.25
 40
0.25
 40
0.5
 40
0.5
 40
0.5
 40
0.5
 40
0.75
 40
0.75
 40
0.75
 40
0.75
 40
1.0
 40
1.0
 40
1.0
 40
1.0
 10
-165.2199
 20
96.879099999999994
 30
0.0
 10
-165.2199
 20
96.879099999999994
 30
0.0
 10
-165.2199
 20
104.87909999999999
 30
0.0
 10
-165.2199
 20
104.87909999999999
 30
0.0
 10
-165.2199
 20
104.87909999999999
 30
0.0
 10
-165.2199
 20
104.87909999999999
 30
0.0
 10
-25.219899999999999
 20
104.87909999999999
 30
0.0
 10
-25.219899999999999
 20
104.87909999999999
 30
0.0
 10
-25.219899999999999
 20
104.87909999999999
 30
0.0
 10
-25.219899999999999
 20
104.87909999999999
 30
0.0
 10
-25.219899999999999
 20
96.879099999999994
 30
0.0
 10
-25.219899999999999
 20
96.879099999999994
 30
0.0
 10
-25.219899999999999
 20
96.879099999999994
 30
0.0
 10
-25.219899999999999
 20
96.879099999999994
 30
0.0
 10
-165.2199
 20
96.879099999999994
 30
0.0
 10
-165.2199
 20
96.879099999999994
 30
0.0
  0
SPLINE
  5
D9
100
AcDbEntity
  8
EBENE_1
100
AcDbSpline
210
0.0
220
0.0
230
1.0
 70
     1
 71
     3
 72
    20
 73
    16
 74
     0
 42
0.0000000001
 43
0.0000000001
 40
0.0
 40
0.0
 40
0.0
 40
0.0
 40
0.25
 40
0.25
 40
0.25
 40
0.25
 40
0.5
 40
0.5
 40
0.5
 40
0.5
 40
0.75
 40
0.75
 40
0.75
 40
0.75
 40
1.0
 40
1.0
 40
1.0
 40
1.0
 10
-165.2199
 20
99.879499999999993
 30
0.0
 10
-165.2199
 20
99.879499999999993
 30
0.0
 10
-165.2199
 20
101.87949999999999
 30
0.0
 10
-165.2199
 20
101.87949999999999
 30
0.0
 10
-165.2199
 20
101.87949999999999
 30
0.0
 10
-165.2199
 20
101.87949999999999
 30
0.0
 10
-25.219899999999999
 20
101.87949999999999
 30
0.0
 10
-25.219899999999999
 20
101.87949999999999
 30
0.0
 10
-25.219899999999999
 20
101.87949999999999
 30
0.0
 10
-25.219899999999999
 20
101.87949999999999
 30
0.0
 10
-25.219899999999999
 20
99.879499999999993
 30
0.0
 10
-25.219899999999999
 20
99.879499999999993
 30
0.0
 10
-25.219899999999999
 20
99.879499999999993
 30
0.0
 10
-25.219899999999999
 20
99.879499999999993
 30
0.0
 10
-165.2199
 20
99.879499999999993
 30
0.0
 10
-165.2199
 20
99.879499999999993
 30
0.0
  0
SPLINE
  5
DA
100
AcDbEntity
  8
EBENE_1
 62
   251
100
AcDbSpline
210
0.0
220
0.0
230
1.0
 70
     1
 71
     3
 72
    20
 73
    16
 74
     0
 42
0.0000000001
 43
0.0000000001
 40
0.0
 40
0.0
 40
0.0
 40
0.0
 40
0.25
 40
0.25
 40
0.25
 40
0.25
 40
0.5
 40
0.5
 40
0.5
 40
0.5
 40
0.75
 40
0.75
 40
0.75
 40
0.75
 40
1.0
 40
1.0
 40
1.0
 40
1.0
 10
-165.2199
 20
115.37909999999999
 30
0.0
 10
-165.2199
 20
115.37909999999999
 30
0.0
 10
-165.2199
 20
123.37909999999999
 30
0.0
 10
-165.2199
 20
123.37909999999999
 30
0.0
 10
-165.2199
 20
123.37909999999999
 30
0.0
 10
-165.2199
 20
123.37909999999999
 30
0.0
 10
-25.219899999999999
 20
123.37909999999999
 30
0.0
 10
-25.219899999999999
 20
123.37909999999999
 30
0.0
 10
-25.219899999999999
 20
123.37909999999999
 30
0.0
 10
-25.219899999999999
 20
123.37909999999999
 30
0.0
 10
-25.219899999999999
 20
115.37909999999999
 30
0.0
 10
-25.219899999999999
 20
115.37909999999999
 30
0.0
 10
-25.219899999999999
 20
115.37909999999999
 30
0.0
 10
-25.219899999999999
 20
115.37909999999999
 30
0.0
 10
-165.2199
 20
115.37909999999999
 30
0.0
 10
-165.2199
 20
115.37909999999999
 30
0.0
  0
SPLINE
  5
DB
100
AcDbEntity
  8
EBENE_1
100
AcDbSpline
210
0.0
220
0.0
230
1.0
 70
     1
 71
     3
 72
    20
 73
    16
 74
     0
 42
0.0000000001
 43
0.0000000001
 40
0.0
 40
0.0
 40
0.0
 40
0.0
 40
0.25
 40
0.25
 40
0.25
 40
0.25
 40
0.5
 40
0.5
 40
0.5
 40
0.5
 40
0.75
 40
0.75
 40
0.75
 40
0.75
 40
1.0
 40
1.0
 40
1.0
 40
1.0
 10
-165.2199
 20
118.37949999999999
 30
0.0
 10
-165.2199
 20
118.37949999999999
 30
0.0
 10
-165.2199
 20
120.37949999999999
 30
0.0
 10
-165.2199
 20
120.37949999999999
 30
0.0
 10
-165.2199
 20
120.37949999999999
 30
0.0
 10
-165.2199
 20
120.37949999999999
 30
0.0
 10
-25.219899999999999
 20
120.37949999999999
 30
0.0
 10
-25.219899999999999
 20
120.37949999999999
 30
0.0
 10
-25.219899999999999
 20
120.37949999999999
 30
0.0
 10
-25.219899999999999
 20
120.37949999999999
 30
0.0
 10
-25.219899999999999
 20
118.37949999999999
 30
0.0
 10
-25.219899999999999
 20
118.37949999999999
 30
0.0
 10
-25.219899999999999
 20
118.37949999999999
 30
0.0
 10
-25.219899999999999
 20
118.37949999999999
 30
0.0
 10
-165.2199
 20
118.37949999999999
 30
0.0
 10
-165.2199
 20
118.37949999999999
 30
0.0
  0
ELLIPSE
  5
DC
100
AcDbEntity
  8
EBENE_1
100
AcDbEllipse
 10
-95.2199
 20
110.1291
 30
0.0
 11
0.0
 21
40.6614
 31
0.0
210
0.0
220
0.0
230
1.0
 40
1.0
 41
0.0
 42
6.2831853080000002
  0
SPLINE
  5
DD
100
AcDbEntity
  8
EBENE_1
 62
    94
100
AcDbSpline
210
0.0
220
0.0
230
1.0
 70
     1
 71
     3
 72
    24
 73
    20
 74
     0
 42
0.0000000001
 43
0.0000000001
 40
0.0
 40
0.0
 40
0.0
 40
0.0
 40
0.2
 40
0.2
 40
0.2
 40
0.2
 40
0.4
 40
0.4
 40
0.4
 40
0.4
 40
0.6000000000000001
 40
0.6000000000000001
 40
0.6000000000000001
 40
0.6000000000000001
 40
0.8
 40
0.8
 40
0.8
 40
0.8
 40
1.0
 40
1.0
 40
1.0
 40
1.0
 10
-95.219899999999996
 20
150.79050000000001
 30
0.0
 10
-92.9208
 20
150.79050000000001
 30
0.0
 10
-90.666200000000003
 20
150.5959
 30
0.0
 10
-88.469899999999996
 20
150.22540000000001
 30
0.0
 10
-88.469899999999996
 20
150.22540000000001
 30
0.0
 10
-88.469899999999996
 20
150.22540000000001
 30
0.0
 10
-88.469899999999996
 20
119.87909999999999
 30
0.0
 10
-88.469899999999996
 20
119.87909999999999
 30
0.0
 10
-88.469899999999996
 20
119.87909999999999
 30
0.0
 10
-88.469899999999996
 20
119.87909999999999
 30
0.0
 10
-101.9699
 20
119.87909999999999
 30
0.0
 10
-101.9699
 20
119.87909999999999
 30
0.0
 10
-101.9699
 20
119.87909999999999
 30
0.0
 10
-101.9699
 20
119.87909999999999
 30
0.0
 10
-101.9699
 20
150.22540000000001
 30
0.0
 10
-101.9699
 20
150.22540000000001
 30
0.0
 10
-101.9699
 20
150.22540000000001
 30
0.0
 10
-99.773200000000003
 20
150.5951
 30
0.0
 10
-97.519000000000005
 20
150.79050000000001
 30
0.0
 10
-95.219899999999996
 20
150.79050000000001
 30
0.0
  0
SPLINE
  5
DE
100
AcDbEntity
  8
EBENE_1
 62
    94
100
AcDbSpline
210
0.0
220
0.0
230
1.0
 70
     1
 71
     3
 72
    20
 73
    16
 74
     0
 42
0.0000000001
 43
0.0000000001
 40
0.0
 40
0.0
 40
0.0
 40
0.0
 40
0.25
 40
0.25
 40
0.25
 40
0.25
 40
0.5
 40
0.5
 40
0.5
 40
0.5
 40
0.75
 40
0.75
 40
0.75
 40
0.75
 40
1.0
 40
1.0
 40
1.0
 40
1.0
 10
-88.469899999999996
 20
116.87909999999999
 30
0.0
 10
-88.469899999999996
 20
116.87909999999999
 30
0.0
 10
-88.469899999999996
 20
103.37909999999999
 30
0.0
 10
-88.469899999999996
 20
103.37909999999999
 30
0.0
 10
-88.469899999999996
 20
103.37909999999999
 30
0.0
 10
-88.469899999999996
 20
103.37909999999999
 30
0.0
 10
-101.9699
 20
103.37909999999999
 30
0.0
 10
-101.9699
 20
103.37909999999999
 30
0.0
 10
-101.9699
 20
103.37909999999999
 30
0.0
 10
-101.9699
 20
103.37909999999999
 30
0.0
 10
-101.9699
 20
116.87909999999999
 30
0.0
 10
-101.9699
 20
116.87909999999999
 30
0.0
 10
-101.9699
 20
116.87909999999999
 30
0.0
 10
-101.9699
 20
116.87909999999999
 30
0.0
 10
-88.469899999999996
 20
116.87909999999999
 30
0.0
 10
-88.469899999999996
 20
116.87909999999999
 30
0.0
  0
SPLINE
  5
DF
100
AcDbEntity
  8
EBENE_1
 62
    94
100
AcDbSpline
210
0.0
220
0.0
230
1.0
 70
     1
 71
     3
 72
    24
 73
    20
 74
     0
 42
0.0000000001
 43
0.0000000001
 40
0.0
 40
0.0
 40
0.0
 40
0.0
 40
0.2
 40
0.2
 40
0.2
 40
0.2
 40
0.4
 40
0.4
 40
0.4
 40
0.4
 40
0.6000000000000001
 40
0.6000000000000001
 40
0.6000000000000001
 40
0.6000000000000001
 40
0.8
 40
0.8
 40
0.8
 40
0.8
 40
1.0
 40
1.0
 40
1.0
 40
1.0
 10
-88.469899999999996
 20
100.37909999999999
 30
0.0
 10
-88.469899999999996
 20
100.37909999999999
 30
0.0
 10
-88.469899999999996
 20
70.033199999999994
 30
0.0
 10
-88.469899999999996
 20
70.033199999999994
 30
0.0
 10
-88.469899999999996
 20
70.033199999999994
 30
0.0
 10
-90.666200000000003
 20
69.662599999999998
 30
0.0
 10
-92.9208
 20
69.467699999999994
 30
0.0
 10
-95.219899999999996
 20
69.467699999999994
 30
0.0
 10
-95.219899999999996
 20
69.467699999999994
 30
0.0
 10
-97.519000000000005
 20
69.467699999999994
 30
0.0
 10
-99.773200000000003
 20
69.663499999999999
 30
0.0
 10
-101.9699
 20
70.033199999999994
 30
0.0
 10
-101.9699
 20
70.033199999999994
 30
0.0
 10
-101.9699
 20
70.033199999999994
 30
0.0
 10
-101.9699
 20
100.37909999999999
 30
0.0
 10
-101.9699
 20
100.37909999999999
 30
0.0
 10
-101.9699
 20
100.37909999999999
 30
0.0
 10
-101.9699
 20
100.37909999999999
 30
0.0
 10
-88.469899999999996
 20
100.37909999999999
 30
0.0
 10
-88.469899999999996
 20
100.37909999999999
 30
0.0
  0
SPLINE
  5
E0
100
AcDbEntity
  8
EBENE_1
 62
    94
100
AcDbSpline
210
0.0
220
0.0
230
1.0
 70
     1
 71
     3
 72
    16
 73
    12
 74
     0
 42
0.0000000001
 43
0.0000000001
 40
0.0
 40
0.0
 40
0.0
 40
0.0
 40
0.3333333333333333
 40
0.3333333333333333
 40
0.3333333333333333
 40
0.3333333333333333
 40
0.6666666666666666
 40
0.6666666666666666
 40
0.6666666666666666
 40
0.6666666666666666
 40
1.0
 40
1.0
 40
1.0
 40
1.0
 10
-104.9699
 20
70.655900000000003
 30
0.0
 10
-119.55719999999999
 20
74.268799999999999
 30
0.0
 10
-131.08090000000001
 20
85.792400000000001
 30
0.0
 10
-134.69399999999999
 20
100.37909999999999
 30
0.0
 10
-134.69399999999999
 20
100.37909999999999
 30
0.0
 10
-134.69399999999999
 20
100.37909999999999
 30
0.0
 10
-104.9699
 20
100.37909999999999
 30
0.0
 10
-104.9699
 20
100.37909999999999
 30
0.0
 10
-104.9699
 20
100.37909999999999
 30
0.0
 10
-104.9699
 20
100.37909999999999
 30
0.0
 10
-104.9699
 20
70.655900000000003
 30
0.0
 10
-104.9699
 20
70.655900000000003
 30
0.0
  0
SPLINE
  5
E1
100
AcDbEntity
  8
EBENE_1
 62
    94
100
AcDbSpline
210
0.0
220
0.0
230
1.0
 70
     1
 71
     3
 72
    24
 73
    20
 74
     0
 42
0.0000000001
 43
0.0000000001
 40
0.0
 40
0.0
 40
0.0
 40
0.0
 40
0.2
 40
0.2
 40
0.2
 40
0.2
 40
0.4
 40
0.4
 40
0.4
 40
0.4
 40
0.6000000000000001
 40
0.6000000000000001
 40
0.6000000000000001
 40
0.6000000000000001
 40
0.8
 40
0.8
 40
0.8
 40
0.8
 40
1.0
 40
1.0
 40
1.0
 40
1.0
 10
-135.31720000000001
 20
103.37909999999999
 30
0.0
 10
-135.68690000000001
 20
105.57559999999999
 30
0.0
 10
-135.88130000000001
 20
107.8302
 30
0.0
 10
-135.88130000000001
 20
110.12909999999999
 30
0.0
 10
-135.88130000000001
 20
110.12909999999999
 30
0.0
 10
-135.88130000000001
 20
112.42789999999999
 30
0.0
 10
-135.6876
 20
114.6829
 30
0.0
 10
-135.31729999999999
 20
116.87909999999999
 30
0.0
 10
-135.31729999999999
 20
116.87909999999999
 30
0.0
 10
-135.31729999999999
 20
116.87909999999999
 30
0.0
 10
-104.9699
 20
116.87909999999999
 30
0.0
 10
-104.9699
 20
116.87909999999999
 30
0.0
 10
-104.9699
 20
116.87909999999999
 30
0.0
 10
-104.9699
 20
116.87909999999999
 30
0.0
 10
-104.9699
 20
103.37909999999999
 30
0.0
 10
-104.9699
 20
103.37909999999999
 30
0.0
 10
-104.9699
 20
103.37909999999999
 30
0.0
 10
-104.9699
 20
103.37909999999999
 30
0.0
 10
-135.31720000000001
 20
103.37909999999999
 30
0.0
 10
-135.31720000000001
 20
103.37909999999999
 30
0.0
  0
SPLINE
  5
E2
100
AcDbEntity
  8
EBENE_1
 62
    94
100
AcDbSpline
210
0.0
220
0.0
230
1.0
 70
     1
 71
     3
 72
    16
 73
    12
 74
     0
 42
0.0000000001
 43
0.0000000001
 40
0.0
 40
0.0
 40
0.0
 40
0.0
 40
0.3333333333333333
 40
0.3333333333333333
 40
0.3333333333333333
 40
0.3333333333333333
 40
0.6666666666666666
 40
0.6666666666666666
 40
0.6666666666666666
 40
0.6666666666666666
 40
1.0
 40
1.0
 40
1.0
 40
1.0
 10
-134.69409999999999
 20
119.87909999999999
 30
0.0
 10
-131.08080000000001
 20
134.4659
 30
0.0
 10
-119.5574
 20
145.9896
 30
0.0
 10
-104.9699
 20
149.6027
 30
0.0
 10
-104.9699
 20
149.6027
 30
0.0
 10
-104.9699
 20
149.6027
 30
0.0
 10
-104.9699
 20
119.87909999999999
 30
0.0
 10
-104.9699
 20
119.87909999999999
 30
0.0
 10
-104.9699
 20
119.87909999999999
 30
0.0
 10
-104.9699
 20
119.87909999999999
 30
0.0
 10
-134.69409999999999
 20
119.87909999999999
 30
0.0
 10
-134.69409999999999
 20
119.87909999999999
 30
0.0
  0
SPLINE
  5
E3
100
AcDbEntity
  8
EBENE_1
 62
    94
100
AcDbSpline
210
0.0
220
0.0
230
1.0
 70
     1
 71
     3
 72
    16
 73
    12
 74
     0
 42
0.0000000001
 43
0.0000000001
 40
0.0
 40
0.0
 40
0.0
 40
0.0
 40
0.3333333333333333
 40
0.3333333333333333
 40
0.3333333333333333
 40
0.3333333333333333
 40
0.6666666666666666
 40
0.6666666666666666
 40
0.6666666666666666
 40
0.6666666666666666
 40
1.0
 40
1.0
 40
1.0
 40
1.0
 10
-85.469899999999996
 20
149.6027
 30
0.0
 10
-70.882599999999996
 20
145.98949999999999
 30
0.0
 10
-59.359099999999998
 20
134.4659
 30
0.0
 10
-55.745699999999999
 20
119.87909999999999
 30
0.0
 10
-55.745699999999999
 20
119.87909999999999
 30
0.0
 10
-55.745699999999999
 20
119.87909999999999
 30
0.0
 10
-85.469899999999996
 20
119.87909999999999
 30
0.0
 10
-85.469899999999996
 20
119.87909999999999
 30
0.0
 10
-85.469899999999996
 20
119.87909999999999
 30
0.0
 10
-85.469899999999996
 20
119.87909999999999
 30
0.0
 10
-85.469899999999996
 20
149.6027
 30
0.0
 10
-85.469899999999996
 20
149.6027
 30
0.0
  0
SPLINE
  5
E4
100
AcDbEntity
  8
EBENE_1
 62
    94
100
AcDbSpline
210
0.0
220
0.0
230
1.0
 70
     1
 71
     3
 72
    24
 73
    20
 74
     0
 42
0.0000000001
 43
0.0000000001
 40
0.0
 40
0.0
 40
0.0
 40
0.0
 40
0.2
 40
0.2
 40
0.2
 40
0.2
 40
0.4
 40
0.4
 40
0.4
 40
0.4
 40
0.6000000000000001
 40
0.6000000000000001
 40
0.6000000000000001
 40
0.6000000000000001
 40
0.8
 40
0.8
 40
0.8
 40
0.8
 40
1.0
 40
1.0
 40
1.0
 40
1.0
 10
-55.122500000000002
 20
116.87909999999999
 30
0.0
 10
-54.752299999999998
 20
114.6829
 30
0.0
 10
-54.558500000000002
 20
112.42789999999999
 30
0.0
 10
-54.558500000000002
 20
110.12909999999999
 30
0.0
 10
-54.558500000000002
 20
110.12909999999999
 30
0.0
 10
-54.558500000000002
 20
107.8302
 30
0.0
 10
-54.752899999999997
 20
105.57559999999999
 30
0.0
 10
-55.122599999999998
 20
103.37909999999999
 30
0.0
 10
-55.122599999999998
 20
103.37909999999999
 30
0.0
 10
-55.122599999999998
 20
103.37909999999999
 30
0.0
 10
-85.469899999999996
 20
103.37909999999999
 30
0.0
 10
-85.469899999999996
 20
103.37909999999999
 30
0.0
 10
-85.469899999999996
 20
103.37909999999999
 30
0.0
 10
-85.469899999999996
 20
103.37909999999999
 30
0.0
 10
-85.469899999999996
 20
116.87909999999999
 30
0.0
 10
-85.469899999999996
 20
116.87909999999999
 30
0.0
 10
-85.469899999999996
 20
116.87909999999999
 30
0.0
 10
-85.469899999999996
 20
116.87909999999999
 30
0.0
 10
-55.122500000000002
 20
116.87909999999999
 30
0.0
 10
-55.122500000000002
 20
116.87909999999999
 30
0.0
  0
SPLINE
  5
E5
100
AcDbEntity
  8
EBENE_1
 62
    94
100
AcDbSpline
210
0.0
220
0.0
230
1.0
 70
     1
 71
     3
 72
    16
 73
    12
 74
     0
 42
0.0000000001
 43
0.0000000001
 40
0.0
 40
0.0
 40
0.0
 40
0.0
 40
0.3333333333333333
 40
0.3333333333333333
 40
0.3333333333333333
 40
0.3333333333333333
 40
0.6666666666666666
 40
0.6666666666666666
 40
0.6666666666666666
 40
0.6666666666666666
 40
1.0
 40
1.0
 40
1.0
 40
1.0
 10
-55.745800000000003
 20
100.37909999999999
 30
0.0
 10
-59.359000000000002
 20
85.792500000000004
 30
0.0
 10
-70.882800000000003
 20
74.269099999999995
 30
0.0
 10
-85.469899999999996
 20
70.655900000000003
 30
0.0
 10
-85.469899999999996
 20
70.655900000000003
 30
0.0
 10
-85.469899999999996
 20
70.655900000000003
 30
0.0
 10
-85.469899999999996
 20
100.37909999999999
 30
0.0
 10
-85.469899999999996
 20
100.37909999999999
 30
0.0
 10
-85.469899999999996
 20
100.37909999999999
 30
0.0
 10
-85.469899999999996
 20
100.37909999999999
 30
0.0
 10
-55.745800000000003
 20
100.37909999999999
 30
0.0
 10
-55.745800000000003
 20
100.37909999999999
 30
0.0
  0
SPLINE
  5
E6
100
AcDbEntity
  8
EBENE_1
100
AcDbSpline
210
0.0
220
0.0
230
1.0
 70
     0
 71
     3
 72
     8
 73
     4
 74
     0
 42
0.0000000001
 43
0.0000000001
 40
0.0
 40
0.0
 40
0.0
 40
0.0
 40
1.0
 40
1.0
 40
1.0
 40
1.0
 10
-95.2547
 20
40.129100000000001
 30
0.0
 10
-95.2547
 20
40.129100000000001
 30
0.0
 10
-95.2547
 20
180.12909999999999
 30
0.0
 10
-95.2547
 20
180.12909999999999
 30
0.0
  0
SPLINE
  5
E7
100
AcDbEntity
  8
EBENE_1
100
AcDbSpline
210
0.0
220
0.0
230
1.0
 70
     0
 71
     3
 72
     8
 73
     4
 74
     0
 42
0.0000000001
 43
0.0000000001
 40
0.0
 40
0.0
 40
0.0
 40
0.0
 40
1.0
 40
1.0
 40
1.0
 40
1.0
 10
-25.219899999999999
 20
110.1639
 30
0.0
 10
-25.219899999999999
 20
110.1639
 30
0.0
 10
-165.2199
 20
110.1639
 30
0.0
 10
-165.2199
 20
110.1639
 30
0.0
  0
SPLINE
  5
E8
100
AcDbEntity
  8
EBENE_1
 62
   252
100
AcDbSpline
210
0.0
220
0.0
230
1.0
 70
     1
 71
     3
 72
    36
 73
    32
 74
     0
 42
0.0000000001
 43
0.0000000001
 40
0.0
 40
0.0
 40
0.0
 40
0.0
 40
0.125
 40
0.125
 40
0.125
 40
0.125
 40
0.25
 40
0.25
 40
0.25
 40
0.25
 40
0.375
 40
0.375
 40
0.375
 40
0.375
 40
0.5
 40
0.5
 40
0.5
 40
0.5
 40
0.625
 40
0.625
 40
0.625
 40
0.625
 40
0.75
 40
0.75
 40
0.75
 40
0.75
 40
0.875
 40
0.875
 40
0.875
 40
0.875
 40
1.0
 40
1.0
 40
1.0
 40
1.0
 10
-95.219099999999997
 20
-15.7545
 30
0.0
 10
-95.219099999999997
 20
-15.7545
 30
0.0
 10
-69.807000000000002
 20
-15.7545
 30
0.0
 10
-69.807000000000002
 20
-15.7545
 30
0.0
 10
-69.807000000000002
 20
-15.7545
 30
0.0
 10
-69.807000000000002
 20
-15.7545
 30
0.0
 10
-69.807000000000002
 20
-130.50829999999999
 30
0.0
 10
-69.807000000000002
 20
-130.50829999999999
 30
0.0
 10
-69.807000000000002
 20
-130.50829999999999
 30
0.0
 10
-69.807000000000002
 20
-130.50829999999999
 30
0.0
 10
-0.148
 20
-130.50829999999999
 30
0.0
 10
-0.148
 20
-130.50829999999999
 30
0.0
 10
-0.148
 20
-130.50829999999999
 30
0.0
 10
-0.148
 20
-130.50829999999999
 30
0.0
 10
-0.1481
 20
-155.8083
 30
0.0
 10
-0.1481
 20
-155.8083
 30
0.0
 10
-0.1481
 20
-155.8083
 30
0.0
 10
-0.1481
 20
-155.8083
 30
0.0
 10
-128.5574
 20
-155.8083
 30
0.0
 10
-128.5574
 20
-155.8083
 30
0.0
 10
-128.5574
 20
-155.8083
 30
0.0
 10
-128.5574
 20
-109.8961
 30
0.0
 10
-140.41749999999999
 20
-68.4435
 30
0.0
 10
-161.98339999999999
 20
-31.279599999999999
 30
0.0
 10
-161.98339999999999
 20
-31.279599999999999
 30
0.0
 10
-161.98339999999999
 20
-31.279599999999999
 30
0.0
 10
-104.7097
 20
1.8649
 30
0.0
 10
-104.7097
 20
1.8649
 30
0.0
 10
-104.7097
 20
1.8649
 30
0.0
 10
-101.3665
 20
-3.8963000000000001
 30
0.0
 10
-98.200999999999993
 20
-9.7720000000000002
 30
0.0
 10
-95.219099999999997
 20
-15.7545
 30
0.0
  0
SPLINE
  5
E9
100
AcDbEntity
  8
EBENE_1
 62
   253
100
AcDbSpline
210
0.0
220
0.0
230
1.0
 70
     1
 71
     3
 72
    40
 73
    36
 74
     0
 42
0.0000000001
 43
0.0000000001
 40
0.0
 40
0.0
 40
0.0
 40
0.0
 40
0.1111111111111111
 40
0.1111111111111111
 40
0.1111111111111111
 40
0.1111111111111111
 40
0.2222222222222222
 40
0.2222222222222222
 40
0.2222222222222222
 40
0.2222222222222222
 40
0.3333333333333333
 40
0.3333333333333333
 40
0.3333333333333333
 40
0.3333333333333333
 40
0.4444444444444444
 40
0.4444444444444444
 40
0.4444444444444444
 40
0.4444444444444444
 40
0.5555555555555556
 40
0.5555555555555556
 40
0.5555555555555556
 40
0.5555555555555556
 40
0.6666666666666667
 40
0.6666666666666667
 40
0.6666666666666667
 40
0.6666666666666667
 40
0.7777777777777779
 40
0.7777777777777779
 40
0.7777777777777779
 40
0.7777777777777779
 40
0.8888888888888891
 40
0.8888888888888891
 40
0.8888888888888891
 40
0.8888888888888891
 40
1.0
 40
1.0
 40
1.0
 40
1.0
 10
-73.352599999999995
 20
-155.8083
 30
0.0
 10
-73.352599999999995
 20
-109.1294
 30
0.0
 10
-73.557000000000002
 20
-62.4377
 30
0.0
 10
-73.557000000000002
 20
-15.7545
 30
0.0
 10
-73.557000000000002
 20
-15.7545
 30
0.0
 10
-73.557000000000002
 20
-15.7545
 30
0.0
 10
-107.8137
 20
-15.7545
 30
0.0
 10
-107.8137
 20
-15.7545
 30
0.0
 10
-107.8137
 20
-15.7545
 30
0.0
 10
-109.9324
 20
-11.7479
 30
0.0
 10
-112.14360000000001
 20
-7.7582000000000004
 30
0.0
 10
-114.4508
 20
-3.7824
 30
0.0
 10
-114.4508
 20
-3.7824
 30
0.0
 10
-114.4508
 20
-3.7824
 30
0.0
 10
-151.25049999999999
 20
-25.140599999999999
 30
0.0
 10
-151.25049999999999
 20
-25.140599999999999
 30
0.0
 10
-151.25049999999999
 20
-25.140599999999999
 30
0.0
 10
-131.26650000000001
 20
-59.578400000000002
 30
0.0
 10
-118.7813
 20
-102.97029999999999
 30
0.0
 10
-117.057
 20
-145.68260000000001
 30
0.0
 10
-117.057
 20
-145.68260000000001
 30
0.0
 10
-117.057
 20
-145.68260000000001
 30
0.0
 10
-117.057
 20
-155.75450000000001
 30
0.0
 10
-117.057
 20
-155.75450000000001
 30
0.0
 10
-117.057
 20
-155.75450000000001
 30
0.0
 10
-117.057
 20
-155.75450000000001
 30
0.0
 10
-116.84990000000001
 20
-155.75450000000001
 30
0.0
 10
-116.84990000000001
 20
-155.75450000000001
 30
0.0
 10
-116.84990000000001
 20
-155.75450000000001
 30
0.0
 10
-116.84990000000001
 20
-155.77250000000001
 30
0.0
 10
-116.8497
 20
-155.79040000000001
 30
0.0
 10
-116.8497
 20
-155.8083
 30
0.0
 10
-116.8497
 20
-155.8083
 30
0.0
 10
-116.8497
 20
-155.8083
 30
0.0
 10
-73.352599999999995
 20
-155.8083
 30
0.0
 10
-73.352599999999995
 20
-155.8083
 30
0.0
  0
SPLINE
  5
EA
100
AcDbEntity
  8
EBENE_1
100
AcDbSpline
210
0.0
220
0.0
230
1.0
 70
     1
 71
     3
 72
    20
 73
    16
 74
     0
 42
0.0000000001
 43
0.0000000001
 40
0.0
 40
0.0
 40
0.0
 40
0.0
 40
0.25
 40
0.25
 40
0.25
 40
0.25
 40
0.5
 40
0.5
 40
0.5
 40
0.5
 40
0.75
 40
0.75
 40
0.75
 40
0.75
 40
1.0
 40
1.0
 40
1.0
 40
1.0
 10
-112.7191
 20
-17.119599999999998
 30
0.0
 10
-112.7191
 20
-17.119599999999998
 30
0.0
 10
-77.719099999999997
 20
-17.119599999999998
 30
0.0
 10
-77.719099999999997
 20
-17.119599999999998
 30
0.0
 10
-77.719099999999997
 20
-17.119599999999998
 30
0.0
 10
-77.719099999999997
 20
-17.119599999999998
 30
0.0
 10
-77.719099999999997
 20
-25.119599999999998
 30
0.0
 10
-77.719099999999997
 20
-25.119599999999998
 30
0.0
 10
-77.719099999999997
 20
-25.119599999999998
 30
0.0
 10
-77.719099999999997
 20
-25.119599999999998
 30
0.0
 10
-112.7191
 20
-25.119599999999998
 30
0.0
 10
-112.7191
 20
-25.119599999999998
 30
0.0
 10
-112.7191
 20
-25.119599999999998
 30
0.0
 10
-112.7191
 20
-25.119599999999998
 30
0.0
 10
-112.7191
 20
-17.119599999999998
 30
0.0
 10
-112.7191
 20
-17.119599999999998
 30
0.0
  0
SPLINE
  5
EB
100
AcDbEntity
  8
EBENE_1
100
AcDbSpline
210
0.0
220
0.0
230
1.0
 70
     1
 71
     3
 72
    20
 73
    16
 74
     0
 42
0.0000000001
 43
0.0000000001
 40
0.0
 40
0.0
 40
0.0
 40
0.0
 40
0.25
 40
0.25
 40
0.25
 40
0.25
 40
0.5
 40
0.5
 40
0.5
 40
0.5
 40
0.75
 40
0.75
 40
0.75
 40
0.75
 40
1.0
 40
1.0
 40
1.0
 40
1.0
 10
-130.7158
 20
-59.829900000000002
 30
0.0
 10
-130.7158
 20
-59.829900000000002
 30
0.0
 10
-77.715800000000002
 20
-59.829900000000002
 30
0.0
 10
-77.715800000000002
 20
-59.829900000000002
 30
0.0
 10
-77.715800000000002
 20
-59.829900000000002
 30
0.0
 10
-77.715800000000002
 20
-59.829900000000002
 30
0.0
 10
-77.715800000000002
 20
-67.829899999999995
 30
0.0
 10
-77.715800000000002
 20
-67.829899999999995
 30
0.0
 10
-77.715800000000002
 20
-67.829899999999995
 30
0.0
 10
-77.715800000000002
 20
-67.829899999999995
 30
0.0
 10
-130.7158
 20
-67.829899999999995
 30
0.0
 10
-130.7158
 20
-67.829899999999995
 30
0.0
 10
-130.7158
 20
-67.829899999999995
 30
0.0
 10
-130.7158
 20
-67.829899999999995
 30
0.0
 10
-130.7158
 20
-59.829900000000002
 30
0.0
 10
-130.7158
 20
-59.829900000000002
 30
0.0
  0
SPLINE
  5
EC
100
AcDbEntity
  8
EBENE_1
100
AcDbSpline
210
0.0
220
0.0
230
1.0
 70
     1
 71
     3
 72
    20
 73
    16
 74
     0
 42
0.0000000001
 43
0.0000000001
 40
0.0
 40
0.0
 40
0.0
 40
0.0
 40
0.25
 40
0.25
 40
0.25
 40
0.25
 40
0.5
 40
0.5
 40
0.5
 40
0.5
 40
0.75
 40
0.75
 40
0.75
 40
0.75
 40
1.0
 40
1.0
 40
1.0
 40
1.0
 10
-120.7597
 20
-96.708200000000005
 30
0.0
 10
-120.7597
 20
-96.708200000000005
 30
0.0
 10
-77.719099999999997
 20
-96.708200000000005
 30
0.0
 10
-77.719099999999997
 20
-96.708200000000005
 30
0.0
 10
-77.719099999999997
 20
-96.708200000000005
 30
0.0
 10
-77.719099999999997
 20
-96.708200000000005
 30
0.0
 10
-77.719099999999997
 20
-104.70820000000001
 30
0.0
 10
-77.719099999999997
 20
-104.70820000000001
 30
0.0
 10
-77.719099999999997
 20
-104.70820000000001
 30
0.0
 10
-77.719099999999997
 20
-104.70820000000001
 30
0.0
 10
-120.7597
 20
-104.70820000000001
 30
0.0
 10
-120.7597
 20
-104.70820000000001
 30
0.0
 10
-120.7597
 20
-104.70820000000001
 30
0.0
 10
-120.7597
 20
-104.70820000000001
 30
0.0
 10
-120.7597
 20
-96.708200000000005
 30
0.0
 10
-120.7597
 20
-96.708200000000005
 30
0.0
  0
SPLINE
  5
ED
100
AcDbEntity
  8
EBENE_1
100
AcDbSpline
210
0.0
220
0.0
230
1.0
 70
     1
 71
     3
 72
    20
 73
    16
 74
     0
 42
0.0000000001
 43
0.0000000001
 40
0.0
 40
0.0
 40
0.0
 40
0.0
 40
0.25
 40
0.25
 40
0.25
 40
0.25
 40
0.5
 40
0.5
 40
0.5
 40
0.5
 40
0.75
 40
0.75
 40
0.75
 40
0.75
 40
1.0
 40
1.0
 40
1.0
 40
1.0
 10
-112.7196
 20
-130.50829999999999
 30
0.0
 10
-112.7196
 20
-130.50829999999999
 30
0.0
 10
-22.7197
 20
-130.50829999999999
 30
0.0
 10
-22.7197
 20
-130.50829999999999
 30
0.0
 10
-22.7197
 20
-130.50829999999999
 30
0.0
 10
-22.7197
 20
-130.50829999999999
 30
0.0
 10
-22.7197
 20
-138.50829999999999
 30
0.0
 10
-22.7197
 20
-138.50829999999999
 30
0.0
 10
-22.7197
 20
-138.50829999999999
 30
0.0
 10
-22.7197
 20
-138.50829999999999
 30
0.0
 10
-112.7196
 20
-138.50829999999999
 30
0.0
 10
-112.7196
 20
-138.50829999999999
 30
0.0
 10
-112.7196
 20
-138.50829999999999
 30
0.0
 10
-112.7196
 20
-138.50829999999999
 30
0.0
 10
-112.7196
 20
-130.50829999999999
 30
0.0
 10
-112.7196
 20
-130.50829999999999
 30
0.0
  0
SPLINE
  5
EE
100
AcDbEntity
  8
EBENE_1
100
AcDbSpline
210
0.0
220
0.0
230
1.0
 70
     1
 71
     3
 72
    20
 73
    16
 74
     0
 42
0.0000000001
 43
0.0000000001
 40
0.0
 40
0.0
 40
0.0
 40
0.0
 40
0.25
 40
0.25
 40
0.25
 40
0.25
 40
0.5
 40
0.5
 40
0.5
 40
0.5
 40
0.75
 40
0.75
 40
0.75
 40
0.75
 40
1.0
 40
1.0
 40
1.0
 40
1.0
 10
-112.7197
 20
-146.50829999999999
 30
0.0
 10
-112.7197
 20
-146.50829999999999
 30
0.0
 10
-22.7197
 20
-146.50829999999999
 30
0.0
 10
-22.7197
 20
-146.50829999999999
 30
0.0
 10
-22.7197
 20
-146.50829999999999
 30
0.0
 10
-22.7197
 20
-146.50829999999999
 30
0.0
 10
-22.7197
 20
-154.50829999999999
 30
0.0
 10
-22.7197
 20
-154.50829999999999
 30
0.0
 10
-22.7197
 20
-154.50829999999999
 30
0.0
 10
-22.7197
 20
-154.50829999999999
 30
0.0
 10
-112.7197
 20
-154.50829999999999
 30
0.0
 10
-112.7197
 20
-154.50829999999999
 30
0.0
 10
-112.7197
 20
-154.50829999999999
 30
0.0
 10
-112.7197
 20
-154.50829999999999
 30
0.0
 10
-112.7197
 20
-146.50829999999999
 30
0.0
 10
-112.7197
 20
-146.50829999999999
 30
0.0
  0
SPLINE
  5
EF
100
AcDbEntity
  8
EBENE_1
100
AcDbSpline
210
0.0
220
0.0
230
1.0
 70
     1
 71
     3
 72
    20
 73
    16
 74
     0
 42
0.0000000001
 43
0.0000000001
 40
0.0
 40
0.0
 40
0.0
 40
0.0
 40
0.25
 40
0.25
 40
0.25
 40
0.25
 40
0.5
 40
0.5
 40
0.5
 40
0.5
 40
0.75
 40
0.75
 40
0.75
 40
0.75
 40
1.0
 40
1.0
 40
1.0
 40
1.0
 10
-147.7688
 20
-24.346800000000002
 30
0.0
 10
-147.7688
 20
-24.346800000000002
 30
0.0
 10
-117.3694
 20
-7.0008999999999997
 30
0.0
 10
-117.3694
 20
-7.0008999999999997
 30
0.0
 10
-117.3694
 20
-7.0008999999999997
 30
0.0
 10
-117.3694
 20
-7.0008999999999997
 30
0.0
 10
-113.40470000000001
 20
-13.949299999999999
 30
0.0
 10
-113.40470000000001
 20
-13.949299999999999
 30
0.0
 10
-113.40470000000001
 20
-13.949299999999999
 30
0.0
 10
-113.40470000000001
 20
-13.949299999999999
 30
0.0
 10
-143.804
 20
-31.295200000000001
 30
0.0
 10
-143.804
 20
-31.295200000000001
 30
0.0
 10
-143.804
 20
-31.295200000000001
 30
0.0
 10
-143.804
 20
-31.295200000000001
 30
0.0
 10
-147.7688
 20
-24.346800000000002
 30
0.0
 10
-147.7688
 20
-24.346800000000002
 30
0.0
  0
SPLINE
  5
F0
100
AcDbEntity
  8
EBENE_1
100
AcDbSpline
210
0.0
220
0.0
230
1.0
 70
     1
 71
     3
 72
    20
 73
    16
 74
     0
 42
0.0000000001
 43
0.0000000001
 40
0.0
 40
0.0
 40
0.0
 40
0.0
 40
0.25
 40
0.25
 40
0.25
 40
0.25
 40
0.5
 40
0.5
 40
0.5
 40
0.5
 40
0.75
 40
0.75
 40
0.75
 40
0.75
 40
1.0
 40
1.0
 40
1.0
 40
1.0
 10
-52.763100000000001
 20
-140.57939999999999
 30
0.0
 10
-52.763100000000001
 20
-140.57939999999999
 30
0.0
 10
-97.642099999999999
 20
-140.57939999999999
 30
0.0
 10
-97.642099999999999
 20
-140.57939999999999
 30
0.0
 10
-97.642099999999999
 20
-140.57939999999999
 30
0.0
 10
-97.642099999999999
 20
-140.57939999999999
 30
0.0
 10
-97.642099999999999
 20
-144.63900000000001
 30
0.0
 10
-97.642099999999999
 20
-144.63900000000001
 30
0.0
 10
-97.642099999999999
 20
-144.63900000000001
 30
0.0
 10
-97.642099999999999
 20
-144.63900000000001
 30
0.0
 10
-52.763100000000001
 20
-144.63900000000001
 30
0.0
 10
-52.763100000000001
 20
-144.63900000000001
 30
0.0
 10
-52.763100000000001
 20
-144.63900000000001
 30
0.0
 10
-52.763100000000001
 20
-144.63900000000001
 30
0.0
 10
-52.763100000000001
 20
-140.57939999999999
 30
0.0
 10
-52.763100000000001
 20
-140.57939999999999
 30
0.0
  0
SPLINE
  5
F1
100
AcDbEntity
  8
EBENE_1
100
AcDbSpline
210
0.0
220
0.0
230
1.0
 70
     1
 71
     3
 72
    20
 73
    16
 74
     0
 42
0.0000000001
 43
0.0000000001
 40
0.0
 40
0.0
 40
0.0
 40
0.0
 40
0.25
 40
0.25
 40
0.25
 40
0.25
 40
0.5
 40
0.5
 40
0.5
 40
0.5
 40
0.75
 40
0.75
 40
0.75
 40
0.75
 40
1.0
 40
1.0
 40
1.0
 40
1.0
 10
-93.941800000000001
 20
-141.6473
 30
0.0
 10
-94.402600000000007
 20
-141.6473
 30
0.0
 10
-94.778400000000005
 20
-142.01329999999999
 30
0.0
 10
-94.778400000000005
 20
-142.46180000000001
 30
0.0
 10
-94.778400000000005
 20
-142.46180000000001
 30
0.0
 10
-94.778400000000005
 20
-142.91040000000001
 30
0.0
 10
-94.402600000000007
 20
-143.27619999999999
 30
0.0
 10
-93.941800000000001
 20
-143.27619999999999
 30
0.0
 10
-93.941800000000001
 20
-143.27619999999999
 30
0.0
 10
-93.480999999999995
 20
-143.27619999999999
 30
0.0
 10
-93.105099999999993
 20
-142.91040000000001
 30
0.0
 10
-93.105099999999993
 20
-142.46180000000001
 30
0.0
 10
-93.105099999999993
 20
-142.46180000000001
 30
0.0
 10
-93.105099999999993
 20
-142.01329999999999
 30
0.0
 10
-93.480999999999995
 20
-141.6473
 30
0.0
 10
-93.941800000000001
 20
-141.6473
 30
0.0
  0
LWPOLYLINE
  5
F2
100
AcDbEntity
  8
EBENE_1
100
AcDbPolyline
 90
        5
 70
     1
 10
-55.4899
 20
-154.7101
 10
-25.4951
 20
-154.7101
 10
-25.4951
 20
-130.5083
 10
-55.4899
 20
-130.5083
 10
-55.4899
 20
-154.7101
  0
LWPOLYLINE
  5
F3
100
AcDbEntity
  8
EBENE_1
 62
    98
100
AcDbPolyline
 90
        5
 70
     1
 10
-49.7957
 20
-148.3083
 10
-31.1893
 20
-148.3083
 10
-31.1893
 20
-136.9101
 10
-49.7957
 20
-136.9101
 10
-49.7957
 20
-148.3083
  0
LWPOLYLINE
  5
F4
100
AcDbEntity
  8
EBENE_1
100
AcDbPolyline
 90
        5
 70
     1
 10
-47.4527
 20
-143.3832
 10
-33.5323
 20
-143.3832
 10
-33.5323
 20
-141.8352
 10
-47.4527
 20
-141.8352
 10
-47.4527
 20
-143.3832
  0
LWPOLYLINE
  5
F5
100
AcDbEntity
  8
EBENE_1
 62
   251
100
AcDbPolyline
 90
        5
 70
     1
 10
-41.3466
 20
-143.0619
 10
-1.59
 20
-143.0619
 10
-1.59
 20
-142.1565
 10
-41.3466
 20
-142.1565
 10
-41.3466
 20
-143.0619
  0
LWPOLYLINE
  5
F6
100
AcDbEntity
  8
EBENE_1
 62
   253
100
AcDbPolyline
 90
        5
 70
     1
 10
-22.2043
 20
-143.9553
 10
-11.4769
 20
-143.9553
 10
-11.4769
 20
-141.2631
 10
-22.2043
 20
-141.2631
 10
-22.2043
 20
-143.9553
  0
LWPOLYLINE
  5
F7
100
AcDbEntity
  8
EBENE_1
 62
   251
100
AcDbPolyline
 90
        5
 70
     1
 10
-108.4695
 20
-38.247
 10
-100.4695
 20
-38.247
 10
-100.4695
 20
-15.878
 10
-108.4695
 20
-15.878
 10
-108.4695
 20
-38.247
  0
LWPOLYLINE
  5
F8
100
AcDbEntity
  8
EBENE_1
 62
   251
100
AcDbPolyline
 90
        5
 70
     1
 10
-89.9695
 20
-155.808
 10
-81.9695
 20
-155.808
 10
-81.9695
 20
-15.808
 10
-89.9695
 20
-15.808
 10
-89.9695
 20
-155.808
  0
SPLINE
  5
F9
100
AcDbEntity
  8
EBENE_1
100
AcDbSpline
210
0.0
220
0.0
230
1.0
 70
     0
 71
     3
 72
     8
 73
     4
 74
     0
 42
0.0000000001
 43
0.0000000001
 40
0.0
 40
0.0
 40
0.0
 40
0.0
 40
1.0
 40
1.0
 40
1.0
 40
1.0
 10
-95.219099999999997
 20
-155.87799999999999
 30
0.0
 10
-95.219099999999997
 20
-155.87799999999999
 30
0.0
 10
-95.219099999999997
 20
-15.878
 30
0.0
 10
-95.219099999999997
 20
-15.878
 30
0.0
  0
LWPOLYLINE
  5
FA
100
AcDbEntity
  8
EBENE_1
100
AcDbPolyline
 90
        5
 70
     1
 10
-105.4691
 20
-38.247
 10
-103.4691
 20
-38.247
 10
-103.4691
 20
-15.878
 10
-105.4691
 20
-15.878
 10
-105.4691
 20
-38.247
  0
LWPOLYLINE
  5
FB
100
AcDbEntity
  8
EBENE_1
100
AcDbPolyline
 90
        5
 70
     1
 10
-86.9691
 20
-155.808
 10
-84.9691
 20
-155.808
 10
-84.9691
 20
-15.808
 10
-86.9691
 20
-15.808
 10
-86.9691
 20
-155.808
  0
SPLINE
  5
FC
100
AcDbEntity
  8
EBENE_1
 62
   251
100
AcDbSpline
210
0.0
220
0.0
230
1.0
 70
     1
 71
     3
 72
    20
 73
    16
 74
     0
 42
0.0000000001
 43
0.0000000001
 40
0.0
 40
0.0
 40
0.0
 40
0.0
 40
0.25
 40
0.25
 40
0.25
 40
0.25
 40
0.5
 40
0.5
 40
0.5
 40
0.5
 40
0.75
 40
0.75
 40
0.75
 40
0.75
 40
1.0
 40
1.0
 40
1.0
 40
1.0
 10
-100.4085
 20
-155.8142
 30
0.0
 10
-100.4085
 20
-105.40179999999999
 30
0.0
 10
-113.9902
 20
-58.063400000000001
 30
0.0
 10
-137.66990000000001
 20
-17.256699999999999
 30
0.0
 10
-137.66990000000001
 20
-17.256699999999999
 30
0.0
 10
-137.66990000000001
 20
-17.256699999999999
 30
0.0
 10
-144.5949
 20
-21.254899999999999
 30
0.0
 10
-144.5949
 20
-21.254899999999999
 30
0.0
 10
-144.5949
 20
-21.254899999999999
 30
0.0
 10
-121.5985
 20
-60.884099999999997
 30
0.0
 10
-108.4085
 20
-106.85639999999999
 30
0.0
 10
-108.4085
 20
-155.8142
 30
0.0
 10
-108.4085
 20
-155.8142
 30
0.0
 10
-108.4085
 20
-155.8142
 30
0.0
 10
-100.4085
 20
-155.8142
 30
0.0
 10
-100.4085
 20
-155.8142
 30
0.0
  0
SPLINE
  5
FD
100
AcDbEntity
  8
EBENE_1
100
AcDbSpline
210
0.0
220
0.0
230
1.0
 70
     1
 71
     3
 72
    20
 73
    16
 74
     0
 42
0.0000000001
 43
0.0000000001
 40
0.0
 40
0.0
 40
0.0
 40
0.0
 40
0.25
 40
0.25
 40
0.25
 40
0.25
 40
0.5
 40
0.5
 40
0.5
 40
0.5
 40
0.75
 40
0.75
 40
0.75
 40
0.75
 40
1.0
 40
1.0
 40
1.0
 40
1.0
 10
-103.4085
 20
-155.8142
 30
0.0
 10
-103.4085
 20
-105.9473
 30
0.0
 10
-116.8434
 20
-59.121099999999998
 30
0.0
 10
-140.26679999999999
 20
-18.756
 30
0.0
 10
-140.26679999999999
 20
-18.756
 30
0.0
 10
-140.26679999999999
 20
-18.756
 30
0.0
 10
-141.99799999999999
 20
-19.755500000000001
 30
0.0
 10
-141.99799999999999
 20
-19.755500000000001
 30
0.0
 10
-141.99799999999999
 20
-19.755500000000001
 30
0.0
 10
-118.7453
 20
-59.8262
 30
0.0
 10
-105.4085
 20
-106.3109
 30
0.0
 10
-105.4085
 20
-155.8142
 30
0.0
 10
-105.4085
 20
-155.8142
 30
0.0
 10
-105.4085
 20
-155.8142
 30
0.0
 10
-103.4085
 20
-155.8142
 30
0.0
 10
-103.4085
 20
-155.8142
 30
0.0
  0
SPLINE
  5
FE
100
AcDbEntity
  8
EBENE_1
 62
   251
100
AcDbSpline
210
0.0
220
0.0
230
1.0
 70
     1
 71
     3
 72
    20
 73
    16
 74
     0
 42
0.0000000001
 43
0.0000000001
 40
0.0
 40
0.0
 40
0.0
 40
0.0
 40
0.25
 40
0.25
 40
0.25
 40
0.25
 40
0.5
 40
0.5
 40
0.5
 40
0.5
 40
0.75
 40
0.75
 40
0.75
 40
0.75
 40
1.0
 40
1.0
 40
1.0
 40
1.0
 10
-105.7685
 20
-39.738700000000001
 30
0.0
 10
-110.4575
 20
-28.8185
 30
0.0
 10
-115.7861
 20
-18.2334
 30
0.0
 10
-121.7063
 20
-8.0312000000000001
 30
0.0
 10
-121.7063
 20
-8.0312000000000001
 30
0.0
 10
-121.7063
 20
-8.0312000000000001
 30
0.0
 10
-128.63120000000001
 20
-12.029299999999999
 30
0.0
 10
-128.63120000000001
 20
-12.029299999999999
 30
0.0
 10
-128.63120000000001
 20
-12.029299999999999
 30
0.0
 10
-122.67910000000001
 20
-22.2864
 30
0.0
 10
-117.3417
 20
-32.941299999999998
 30
0.0
 10
-112.6704
 20
-43.942700000000002
 30
0.0
 10
-112.6704
 20
-43.942700000000002
 30
0.0
 10
-112.6704
 20
-43.942700000000002
 30
0.0
 10
-105.7685
 20
-39.738700000000001
 30
0.0
 10
-105.7685
 20
-39.738700000000001
 30
0.0
  0
SPLINE
  5
FF
100
AcDbEntity
  8
EBENE_1
100
AcDbSpline
210
0.0
220
0.0
230
1.0
 70
     1
 71
     3
 72
    20
 73
    16
 74
     0
 42
0.0000000001
 43
0.0000000001
 40
0.0
 40
0.0
 40
0.0
 40
0.0
 40
0.25
 40
0.25
 40
0.25
 40
0.25
 40
0.5
 40
0.5
 40
0.5
 40
0.5
 40
0.75
 40
0.75
 40
0.75
 40
0.75
 40
1.0
 40
1.0
 40
1.0
 40
1.0
 10
-109.9071
 20
-42.7761
 30
0.0
 10
-114.6271
 20
-31.66
 30
0.0
 10
-120.0202
 20
-20.893999999999998
 30
0.0
 10
-126.0343
 20
-10.529999999999999
 30
0.0
 10
-126.0343
 20
-10.529999999999999
 30
0.0
 10
-126.0343
 20
-10.529999999999999
 30
0.0
 10
-124.3031
 20
-9.5305
 30
0.0
 10
-124.3031
 20
-9.5305
 30
0.0
 10
-124.3031
 20
-9.5305
 30
0.0
 10
-118.24760000000001
 20
-19.965800000000002
 30
0.0
 10
-112.8175
 20
-30.805900000000001
 30
0.0
 10
-108.065
 20
-41.9985
 30
0.0
 10
-108.065
 20
-41.9985
 30
0.0
 10
-108.065
 20
-41.9985
 30
0.0
 10
-109.9071
 20
-42.7761
 30
0.0
 10
-109.9071
 20
-42.7761
 30
0.0
  0
SPLINE
  5
100
100
AcDbEntity
  8
EBENE_1
100
AcDbSpline
210
0.0
220
0.0
230
1.0
 70
     0
 71
     3
 72
     8
 73
     4
 74
     0
 42
0.0000000001
 43
0.0000000001
 40
0.0
 40
0.0
 40
0.0
 40
0.0
 40
1.0
 40
1.0
 40
1.0
 40
1.0
 10
-95.219099999999997
 20
-155.8083
 30
0.0
 10
-95.219099999999997
 20
-104.44119999999999
 30
0.0
 10
-109.05800000000001
 20
-56.206499999999998
 30
0.0
 10
-133.18610000000001
 20
-14.6271
 30
0.0
  0
SPLINE
  5
101
100
AcDbEntity
  8
EBENE_1
100
AcDbSpline
210
0.0
220
0.0
230
1.0
 70
     1
 71
     3
 72
    56
 73
    52
 74
     0
 42
0.0000000001
 43
0.0000000001
 40
0.0
 40
0.0
 40
0.0
 40
0.0
 40
0.0769230769230769
 40
0.0769230769230769
 40
0.0769230769230769
 40
0.0769230769230769
 40
0.1538461538461539
 40
0.1538461538461539
 40
0.1538461538461539
 40
0.1538461538461539
 40
0.2307692307692308
 40
0.2307692307692308
 40
0.2307692307692308
 40
0.2307692307692308
 40
0.3076923076923077
 40
0.3076923076923077
 40
0.3076923076923077
 40
0.3076923076923077
 40
0.3846153846153846
 40
0.3846153846153846
 40
0.3846153846153846
 40
0.3846153846153846
 40
0.4615384615384616
 40
0.4615384615384616
 40
0.4615384615384616
 40
0.4615384615384616
 40
0.5384615384615386
 40
0.5384615384615386
 40
0.5384615384615386
 40
0.5384615384615386
 40
0.6153846153846154
 40
0.6153846153846154
 40
0.6153846153846154
 40
0.6153846153846154
 40
0.6923076923076923
 40
0.6923076923076923
 40
0.6923076923076923
 40
0.6923076923076923
 40
0.7692307692307692
 40
0.7692307692307692
 40
0.7692307692307692
 40
0.7692307692307692
 40
0.846153846153846
 40
0.846153846153846
 40
0.846153846153846
 40
0.846153846153846
 40
0.9230769230769229
 40
0.9230769230769229
 40
0.9230769230769229
 40
0.9230769230769229
 40
1.0
 40
1.0
 40
1.0
 40
1.0
 10
-123.73779999999999
 20
-48.904899999999998
 30
0.0
 10
-123.73779999999999
 20
-48.904899999999998
 30
0.0
 10
-123.75960000000001
 20
-48.903100000000002
 30
0.0
 10
-123.75960000000001
 20
-48.903100000000002
 30
0.0
 10
-123.75960000000001
 20
-48.903100000000002
 30
0.0
 10
-119.6033
 20
-58.845999999999997
 30
0.0
 10
-116.4704
 20
-67.319800000000001
 30
0.0
 10
-113.3531
 20
-77.547799999999995
 30
0.0
 10
-113.3531
 20
-77.547799999999995
 30
0.0
 10
-113.3531
 20
-77.547799999999995
 30
0.0
 10
-105.2822
 20
-94.618700000000004
 30
0.0
 10
-105.2822
 20
-94.618700000000004
 30
0.0
 10
-105.2822
 20
-94.618700000000004
 30
0.0
 10
-104.71939999999999
 20
-95.809200000000004
 30
0.0
 10
-104.06440000000001
 20
-96.654499999999999
 30
0.0
 10
-102.7659
 20
-96.676299999999998
 30
0.0
 10
-102.7659
 20
-96.676299999999998
 30
0.0
 10
-102.7659
 20
-96.676299999999998
 30
0.0
 10
-92.634299999999996
 20
-96.847200000000001
 30
0.0
 10
-92.634299999999996
 20
-96.847200000000001
 30
0.0
 10
-92.634299999999996
 20
-96.847200000000001
 30
0.0
 10
-91.0899
 20
-96.873199999999997
 30
0.0
 10
-91.0124
 20
-95.341499999999996
 30
0.0
 10
-90.670100000000005
 20
-93.928700000000006
 30
0.0
 10
-90.670100000000005
 20
-93.928700000000006
 30
0.0
 10
-90.670100000000005
 20
-93.928700000000006
 30
0.0
 10
-88.017600000000002
 20
-82.980099999999993
 30
0.0
 10
-88.017600000000002
 20
-82.980099999999993
 30
0.0
 10
-88.017600000000002
 20
-82.980099999999993
 30
0.0
 10
-88.017600000000002
 20
-82.980099999999993
 30
0.0
 10
-88.017600000000002
 20
-51.789099999999998
 30
0.0
 10
-88.017600000000002
 20
-51.789099999999998
 30
0.0
 10
-88.017600000000002
 20
-51.789099999999998
 30
0.0
 10
-88.017600000000002
 20
-44.330500000000001
 30
0.0
 10
-94.100999999999999
 20
-38.247100000000003
 30
0.0
 10
-101.5596
 20
-38.247100000000003
 30
0.0
 10
-101.5596
 20
-38.247100000000003
 30
0.0
 10
-101.5596
 20
-38.247100000000003
 30
0.0
 10
-116.32259999999999
 20
-38.247100000000003
 30
0.0
 10
-116.32259999999999
 20
-38.247100000000003
 30
0.0
 10
-116.32259999999999
 20
-38.247100000000003
 30
0.0
 10
-116.32259999999999
 20
-38.247100000000003
 30
0.0
 10
-116.32259999999999
 20
-38.3581
 30
0.0
 10
-116.32259999999999
 20
-38.3581
 30
0.0
 10
-116.32259999999999
 20
-38.3581
 30
0.0
 10
-120.66330000000001
 20
-38.3581
 30
0.0
 10
-124.20359999999999
 20
-41.898400000000002
 30
0.0
 10
-124.20359999999999
 20
-46.239100000000001
 30
0.0
 10
-124.20359999999999
 20
-46.239100000000001
 30
0.0
 10
-124.20359999999999
 20
-47.173900000000003
 30
0.0
 10
-124.03879999999999
 20
-48.0717
 30
0.0
 10
-123.73779999999999
 20
-48.904899999999998
 30
0.0
  0
SPLINE
  5
102
100
AcDbEntity
  8
EBENE_1
 62
    94
100
AcDbSpline
210
0.0
220
0.0
230
1.0
 70
     1
 71
     3
 72
    44
 73
    40
 74
     0
 42
0.0000000001
 43
0.0000000001
 40
0.0
 40
0.0
 40
0.0
 40
0.0
 40
0.1
 40
0.1
 40
0.1
 40
0.1
 40
0.2
 40
0.2
 40
0.2
 40
0.2
 40
0.3
 40
0.3
 40
0.3
 40
0.3
 40
0.4
 40
0.4
 40
0.4
 40
0.4
 40
0.5
 40
0.5
 40
0.5
 40
0.5
 40
0.6
 40
0.6
 40
0.6
 40
0.6
 40
0.7
 40
0.7
 40
0.7
 40
0.7
 40
0.7999999999999999
 40
0.7999999999999999
 40
0.7999999999999999
 40
0.7999999999999999
 40
0.8999999999999999
 40
0.8999999999999999
 40
0.8999999999999999
 40
0.8999999999999999
 40
1.0
 40
1.0
 40
1.0
 40
1.0
 10
-123.73779999999999
 20
-48.904899999999998
 30
0.0
 10
-123.73779999999999
 20
-48.904899999999998
 30
0.0
 10
-123.75960000000001
 20
-48.903100000000002
 30
0.0
 10
-123.75960000000001
 20
-48.903100000000002
 30
0.0
 10
-123.75960000000001
 20
-48.903100000000002
 30
0.0
 10
-119.6033
 20
-58.845999999999997
 30
0.0
 10
-116.4704
 20
-67.319800000000001
 30
0.0
 10
-113.3531
 20
-77.547799999999995
 30
0.0
 10
-113.3531
 20
-77.547799999999995
 30
0.0
 10
-113.3531
 20
-77.547799999999995
 30
0.0
 10
-105.2822
 20
-94.618700000000004
 30
0.0
 10
-105.2822
 20
-94.618700000000004
 30
0.0
 10
-105.2822
 20
-94.618700000000004
 30
0.0
 10
-104.77160000000001
 20
-95.698700000000002
 30
0.0
 10
-104.1855
 20
-96.494500000000002
 30
0.0
 10
-103.11150000000001
 20
-96.649199999999993
 30
0.0
 10
-103.11150000000001
 20
-96.649199999999993
 30
0.0
 10
-103.11150000000001
 20
-96.649199999999993
 30
0.0
 10
-103.11150000000001
 20
-67.829899999999995
 30
0.0
 10
-103.11150000000001
 20
-67.829899999999995
 30
0.0
 10
-103.11150000000001
 20
-67.829899999999995
 30
0.0
 10
-103.7697
 20
-65.859700000000004
 30
0.0
 10
-104.437
 20
-63.926499999999997
 30
0.0
 10
-105.11069999999999
 20
-62.040399999999998
 30
0.0
 10
-105.11069999999999
 20
-62.040399999999998
 30
0.0
 10
-107.8477
 20
-54.378
 30
0.0
 10
-111.1709
 20
-46.240499999999997
 30
0.0
 10
-114.80459999999999
 20
-38.247100000000003
 30
0.0
 10
-114.80459999999999
 20
-38.247100000000003
 30
0.0
 10
-114.80459999999999
 20
-38.247100000000003
 30
0.0
 10
-116.32259999999999
 20
-38.247100000000003
 30
0.0
 10
-116.32259999999999
 20
-38.247100000000003
 30
0.0
 10
-116.32259999999999
 20
-38.247100000000003
 30
0.0
 10
-120.66330000000001
 20
-38.247100000000003
 30
0.0
 10
-124.20359999999999
 20
-41.898400000000002
 30
0.0
 10
-124.20359999999999
 20
-46.239100000000001
 30
0.0
 10
-124.20359999999999
 20
-46.239100000000001
 30
0.0
 10
-124.20359999999999
 20
-47.173900000000003
 30
0.0
 10
-124.03879999999999
 20
-48.0717
 30
0.0
 10
-123.73779999999999
 20
-48.904899999999998
 30
0.0
  0
SPLINE
  5
103
100
AcDbEntity
  8
EBENE_1
 62
    94
100
AcDbSpline
210
0.0
220
0.0
230
1.0
 70
     1
 71
     3
 72
    28
 73
    24
 74
     0
 42
0.0000000001
 43
0.0000000001
 40
0.0
 40
0.0
 40
0.0
 40
0.0
 40
0.1666666666666667
 40
0.1666666666666667
 40
0.1666666666666667
 40
0.1666666666666667
 40
0.3333333333333333
 40
0.3333333333333333
 40
0.3333333333333333
 40
0.3333333333333333
 40
0.5
 40
0.5
 40
0.5
 40
0.5
 40
0.6666666666666666
 40
0.6666666666666666
 40
0.6666666666666666
 40
0.6666666666666666
 40
0.8333333333333333
 40
0.8333333333333333
 40
0.8333333333333333
 40
0.8333333333333333
 40
1.0
 40
1.0
 40
1.0
 40
1.0
 10
-91.739999999999995
 20
-96.6113
 30
0.0
 10
-91.036500000000004
 20
-96.131399999999999
 30
0.0
 10
-90.928799999999995
 20
-94.996300000000005
 30
0.0
 10
-90.670100000000005
 20
-93.928700000000006
 30
0.0
 10
-90.670100000000005
 20
-93.928700000000006
 30
0.0
 10
-90.670100000000005
 20
-93.928700000000006
 30
0.0
 10
-88.017600000000002
 20
-82.980099999999993
 30
0.0
 10
-88.017600000000002
 20
-82.980099999999993
 30
0.0
 10
-88.017600000000002
 20
-82.980099999999993
 30
0.0
 10
-88.017600000000002
 20
-82.980099999999993
 30
0.0
 10
-88.017600000000002
 20
-51.789099999999998
 30
0.0
 10
-88.017600000000002
 20
-51.789099999999998
 30
0.0
 10
-88.017600000000002
 20
-51.789099999999998
 30
0.0
 10
-88.017600000000002
 20
-44.819699999999997
 30
0.0
 10
-93.329599999999999
 20
-39.051699999999997
 30
0.0
 10
-100.11150000000001
 20
-38.325000000000003
 30
0.0
 10
-100.11150000000001
 20
-38.325000000000003
 30
0.0
 10
-100.11150000000001
 20
-38.325000000000003
 30
0.0
 10
-100.11150000000001
 20
-67.252099999999999
 30
0.0
 10
-100.11150000000001
 20
-67.252099999999999
 30
0.0
 10
-100.11150000000001
 20
-67.252099999999999
 30
0.0
 10
-96.961299999999994
 20
-76.609999999999999
 30
0.0
 10
-94.080500000000001
 20
-86.706699999999998
 30
0.0
 10
-91.739999999999995
 20
-96.6113
 30
0.0
  0
SPLINE
  5
104
100
AcDbEntity
  8
EBENE_1
 62
    94
100
AcDbSpline
210
0.0
220
0.0
230
1.0
 70
     1
 71
     3
 72
    16
 73
    12
 74
     0
 42
0.0000000001
 43
0.0000000001
 40
0.0
 40
0.0
 40
0.0
 40
0.0
 40
0.3333333333333333
 40
0.3333333333333333
 40
0.3333333333333333
 40
0.3333333333333333
 40
0.6666666666666666
 40
0.6666666666666666
 40
0.6666666666666666
 40
0.6666666666666666
 40
1.0
 40
1.0
 40
1.0
 40
1.0
 10
-103.11150000000001
 20
-38.247100000000003
 30
0.0
 10
-103.11150000000001
 20
-38.247100000000003
 30
0.0
 10
-111.63249999999999
 20
-38.247100000000003
 30
0.0
 10
-111.63249999999999
 20
-38.247100000000003
 30
0.0
 10
-111.63249999999999
 20
-38.247100000000003
 30
0.0
 10
-108.4776
 20
-45.213200000000001
 30
0.0
 10
-105.5784
 20
-52.182699999999997
 30
0.0
 10
-103.11150000000001
 20
-58.788600000000002
 30
0.0
 10
-103.11150000000001
 20
-58.788600000000002
 30
0.0
 10
-103.11150000000001
 20
-58.788600000000002
 30
0.0
 10
-103.11150000000001
 20
-38.247100000000003
 30
0.0
 10
-103.11150000000001
 20
-38.247100000000003
 30
0.0
  0
SPLINE
  5
105
100
AcDbEntity
  8
EBENE_1
 62
    94
100
AcDbSpline
210
0.0
220
0.0
230
1.0
 70
     1
 71
     3
 72
    20
 73
    16
 74
     0
 42
0.0000000001
 43
0.0000000001
 40
0.0
 40
0.0
 40
0.0
 40
0.0
 40
0.25
 40
0.25
 40
0.25
 40
0.25
 40
0.5
 40
0.5
 40
0.5
 40
0.5
 40
0.75
 40
0.75
 40
0.75
 40
0.75
 40
1.0
 40
1.0
 40
1.0
 40
1.0
 10
-93.941800000000001
 20
-141.60290000000001
 30
0.0
 10
-94.402600000000007
 20
-141.60290000000001
 30
0.0
 10
-94.778400000000005
 20
-141.97880000000001
 30
0.0
 10
-94.778400000000005
 20
-142.43960000000001
 30
0.0
 10
-94.778400000000005
 20
-142.43960000000001
 30
0.0
 10
-94.778400000000005
 20
-142.90039999999999
 30
0.0
 10
-94.402600000000007
 20
-143.27619999999999
 30
0.0
 10
-93.941800000000001
 20
-143.27619999999999
 30
0.0
 10
-93.941800000000001
 20
-143.27619999999999
 30
0.0
 10
-93.480999999999995
 20
-143.27619999999999
 30
0.0
 10
-93.105099999999993
 20
-142.90039999999999
 30
0.0
 10
-93.105099999999993
 20
-142.43960000000001
 30
0.0
 10
-93.105099999999993
 20
-142.43960000000001
 30
0.0
 10
-93.105099999999993
 20
-141.97880000000001
 30
0.0
 10
-93.480999999999995
 20
-141.60290000000001
 30
0.0
 10
-93.941800000000001
 20
-141.60290000000001
 30
0.0
  0
SPLINE
  5
106
100
AcDbEntity
  8
EBENE_1
 62
    94
100
AcDbSpline
210
0.0
220
0.0
230
1.0
 70
     1
 71
     3
 72
    20
 73
    16
 74
     0
 42
0.0000000001
 43
0.0000000001
 40
0.0
 40
0.0
 40
0.0
 40
0.0
 40
0.25
 40
0.25
 40
0.25
 40
0.25
 40
0.5
 40
0.5
 40
0.5
 40
0.5
 40
0.75
 40
0.75
 40
0.75
 40
0.75
 40
1.0
 40
1.0
 40
1.0
 40
1.0
 10
-97.310199999999995
 20
-99.871600000000001
 30
0.0
 10
-97.771000000000001
 20
-99.871600000000001
 30
0.0
 10
-98.146799999999999
 20
-100.2474
 30
0.0
 10
-98.146799999999999
 20
-100.70829999999999
 30
0.0
 10
-98.146799999999999
 20
-100.70829999999999
 30
0.0
 10
-98.146799999999999
 20
-101.1691
 30
0.0
 10
-97.771000000000001
 20
-101.5449
 30
0.0
 10
-97.310199999999995
 20
-101.5449
 30
0.0
 10
-97.310199999999995
 20
-101.5449
 30
0.0
 10
-96.849299999999999
 20
-101.5449
 30
0.0
 10
-96.473500000000001
 20
-101.1691
 30
0.0
 10
-96.473500000000001
 20
-100.70829999999999
 30
0.0
 10
-96.473500000000001
 20
-100.70829999999999
 30
0.0
 10
-96.473500000000001
 20
-100.2474
 30
0.0
 10
-96.849299999999999
 20
-99.871600000000001
 30
0.0
 10
-97.310199999999995
 20
-99.871600000000001
 30
0.0
  0
SPLINE
  5
107
100
AcDbEntity
  8
EBENE_1
 62
    94
100
AcDbSpline
210
0.0
220
0.0
230
1.0
 70
     1
 71
     3
 72
    28
 73
    24
 74
     0
 42
0.0000000001
 43
0.0000000001
 40
0.0
 40
0.0
 40
0.0
 40
0.0
 40
0.1666666666666667
 40
0.1666666666666667
 40
0.1666666666666667
 40
0.1666666666666667
 40
0.3333333333333333
 40
0.3333333333333333
 40
0.3333333333333333
 40
0.3333333333333333
 40
0.5
 40
0.5
 40
0.5
 40
0.5
 40
0.6666666666666666
 40
0.6666666666666666
 40
0.6666666666666666
 40
0.6666666666666666
 40
0.8333333333333333
 40
0.8333333333333333
 40
0.8333333333333333
 40
0.8333333333333333
 40
1.0
 40
1.0
 40
1.0
 40
1.0
 10
-104.50539999999999
 20
-96.999399999999994
 30
0.0
 10
-104.50539999999999
 20
-96.999399999999994
 30
0.0
 10
-101.529
 20
-128.74539999999999
 30
0.0
 10
-101.529
 20
-128.74539999999999
 30
0.0
 10
-101.529
 20
-128.74539999999999
 30
0.0
 10
-101.529
 20
-128.74539999999999
 30
0.0
 10
-99.1661
 20
-152.12200000000001
 30
0.0
 10
-99.1661
 20
-152.12200000000001
 30
0.0
 10
-99.1661
 20
-152.12200000000001
 30
0.0
 10
-99.1661
 20
-152.12200000000001
 30
0.0
 10
-86.900800000000004
 20
-152.12200000000001
 30
0.0
 10
-86.900800000000004
 20
-152.12200000000001
 30
0.0
 10
-86.900800000000004
 20
-152.12200000000001
 30
0.0
 10
-86.900800000000004
 20
-152.12200000000001
 30
0.0
 10
-86.900800000000004
 20
-122.97199999999999
 30
0.0
 10
-86.900800000000004
 20
-122.97199999999999
 30
0.0
 10
-86.900800000000004
 20
-122.97199999999999
 30
0.0
 10
-86.900800000000004
 20
-122.97199999999999
 30
0.0
 10
-90.796899999999994
 20
-97.143699999999995
 30
0.0
 10
-90.796899999999994
 20
-97.143699999999995
 30
0.0
 10
-90.796899999999994
 20
-97.143699999999995
 30
0.0
 10
-90.796899999999994
 20
-97.143699999999995
 30
0.0
 10
-104.50539999999999
 20
-96.999399999999994
 30
0.0
 10
-104.50539999999999
 20
-96.999399999999994
 30
0.0
  0
SPLINE
  5
108
100
AcDbEntity
  8
EBENE_1
100
AcDbSpline
210
0.0
220
0.0
230
1.0
 70
     1
 71
     3
 72
    20
 73
    16
 74
     0
 42
0.0000000001
 43
0.0000000001
 40
0.0
 40
0.0
 40
0.0
 40
0.0
 40
0.25
 40
0.25
 40
0.25
 40
0.25
 40
0.5
 40
0.5
 40
0.5
 40
0.5
 40
0.75
 40
0.75
 40
0.75
 40
0.75
 40
1.0
 40
1.0
 40
1.0
 40
1.0
 10
-93.941800000000001
 20
-141.60290000000001
 30
0.0
 10
-94.402600000000007
 20
-141.60290000000001
 30
0.0
 10
-94.778400000000005
 20
-141.97880000000001
 30
0.0
 10
-94.778400000000005
 20
-142.43960000000001
 30
0.0
 10
-94.778400000000005
 20
-142.43960000000001
 30
0.0
 10
-94.778400000000005
 20
-142.90039999999999
 30
0.0
 10
-94.402600000000007
 20
-143.27619999999999
 30
0.0
 10
-93.941800000000001
 20
-143.27619999999999
 30
0.0
 10
-93.941800000000001
 20
-143.27619999999999
 30
0.0
 10
-93.480999999999995
 20
-143.27619999999999
 30
0.0
 10
-93.105099999999993
 20
-142.90039999999999
 30
0.0
 10
-93.105099999999993
 20
-142.43960000000001
 30
0.0
 10
-93.105099999999993
 20
-142.43960000000001
 30
0.0
 10
-93.105099999999993
 20
-141.97880000000001
 30
0.0
 10
-93.480999999999995
 20
-141.60290000000001
 30
0.0
 10
-93.941800000000001
 20
-141.60290000000001
 30
0.0
  0
SPLINE
  5
109
100
AcDbEntity
  8
EBENE_1
100
AcDbSpline
210
0.0
220
0.0
230
1.0
 70
     1
 71
     3
 72
    20
 73
    16
 74
     0
 42
0.0000000001
 43
0.0000000001
 40
0.0
 40
0.0
 40
0.0
 40
0.0
 40
0.25
 40
0.25
 40
0.25
 40
0.25
 40
0.5
 40
0.5
 40
0.5
 40
0.5
 40
0.75
 40
0.75
 40
0.75
 40
0.75
 40
1.0
 40
1.0
 40
1.0
 40
1.0
 10
-97.310199999999995
 20
-99.871600000000001
 30
0.0
 10
-97.771000000000001
 20
-99.871600000000001
 30
0.0
 10
-98.146799999999999
 20
-100.2474
 30
0.0
 10
-98.146799999999999
 20
-100.70829999999999
 30
0.0
 10
-98.146799999999999
 20
-100.70829999999999
 30
0.0
 10
-98.146799999999999
 20
-101.1691
 30
0.0
 10
-97.771000000000001
 20
-101.5449
 30
0.0
 10
-97.310199999999995
 20
-101.5449
 30
0.0
 10
-97.310199999999995
 20
-101.5449
 30
0.0
 10
-96.849299999999999
 20
-101.5449
 30
0.0
 10
-96.473500000000001
 20
-101.1691
 30
0.0
 10
-96.473500000000001
 20
-100.70829999999999
 30
0.0
 10
-96.473500000000001
 20
-100.70829999999999
 30
0.0
 10
-96.473500000000001
 20
-100.2474
 30
0.0
 10
-96.849299999999999
 20
-99.871600000000001
 30
0.0
 10
-97.310199999999995
 20
-99.871600000000001
 30
0.0
  0
SPLINE
  5
10A
100
AcDbEntity
  8
EBENE_1
100
AcDbSpline
210
0.0
220
0.0
230
1.0
 70
     1
 71
     3
 72
    28
 73
    24
 74
     0
 42
0.0000000001
 43
0.0000000001
 40
0.0
 40
0.0
 40
0.0
 40
0.0
 40
0.1666666666666667
 40
0.1666666666666667
 40
0.1666666666666667
 40
0.1666666666666667
 40
0.3333333333333333
 40
0.3333333333333333
 40
0.3333333333333333
 40
0.3333333333333333
 40
0.5
 40
0.5
 40
0.5
 40
0.5
 40
0.6666666666666666
 40
0.6666666666666666
 40
0.6666666666666666
 40
0.6666666666666666
 40
0.8333333333333333
 40
0.8333333333333333
 40
0.8333333333333333
 40
0.8333333333333333
 40
1.0
 40
1.0
 40
1.0
 40
1.0
 10
-103.4472
 20
-96.999399999999994
 30
0.0
 10
-103.4472
 20
-96.999399999999994
 30
0.0
 10
-100.7664
 20
-128.74539999999999
 30
0.0
 10
-100.7664
 20
-128.74539999999999
 30
0.0
 10
-100.7664
 20
-128.74539999999999
 30
0.0
 10
-100.7664
 20
-128.74539999999999
 30
0.0
 10
-98.354299999999995
 20
-152.12200000000001
 30
0.0
 10
-98.354299999999995
 20
-152.12200000000001
 30
0.0
 10
-98.354299999999995
 20
-152.12200000000001
 30
0.0
 10
-98.354299999999995
 20
-152.12200000000001
 30
0.0
 10
-86.900800000000004
 20
-152.12200000000001
 30
0.0
 10
-86.900800000000004
 20
-152.12200000000001
 30
0.0
 10
-86.900800000000004
 20
-152.12200000000001
 30
0.0
 10
-86.900800000000004
 20
-152.12200000000001
 30
0.0
 10
-87.819199999999995
 20
-123.1688
 30
0.0
 10
-87.819199999999995
 20
-123.1688
 30
0.0
 10
-87.819199999999995
 20
-123.1688
 30
0.0
 10
-87.819199999999995
 20
-123.1688
 30
0.0
 10
-91.951300000000003
 20
-97.143699999999995
 30
0.0
 10
-91.951300000000003
 20
-97.143699999999995
 30
0.0
 10
-91.951300000000003
 20
-97.143699999999995
 30
0.0
 10
-91.951300000000003
 20
-97.143699999999995
 30
0.0
 10
-103.4472
 20
-96.999399999999994
 30
0.0
 10
-103.4472
 20
-96.999399999999994
 30
0.0
  0
SPLINE
  5
10B
100
AcDbEntity
  8
EBENE_1
 62
   252
100
AcDbSpline
210
0.0
220
0.0
230
1.0
 70
     1
 71
     3
 72
    36
 73
    32
 74
     0
 42
0.0000000001
 43
0.0000000001
 40
0.0
 40
0.0
 40
0.0
 40
0.0
 40
0.125
 40
0.125
 40
0.125
 40
0.125
 40
0.25
 40
0.25
 40
0.25
 40
0.25
 40
0.375
 40
0.375
 40
0.375
 40
0.375
 40
0.5
 40
0.5
 40
0.5
 40
0.5
 40
0.625
 40
0.625
 40
0.625
 40
0.625
 40
0.75
 40
0.75
 40
0.75
 40
0.75
 40
0.875
 40
0.875
 40
0.875
 40
0.875
 40
1.0
 40
1.0
 40
1.0
 40
1.0
 10
130.54920000000001
 20
-15.7545
 30
0.0
 10
130.54920000000001
 20
-15.7545
 30
0.0
 10
105.1371
 20
-15.7545
 30
0.0
 10
105.1371
 20
-15.7545
 30
0.0
 10
105.1371
 20
-15.7545
 30
0.0
 10
105.1371
 20
-15.7545
 30
0.0
 10
105.1371
 20
-130.50829999999999
 30
0.0
 10
105.1371
 20
-130.50829999999999
 30
0.0
 10
105.1371
 20
-130.50829999999999
 30
0.0
 10
105.1371
 20
-130.50829999999999
 30
0.0
 10
35.478099999999998
 20
-130.50829999999999
 30
0.0
 10
35.478099999999998
 20
-130.50829999999999
 30
0.0
 10
35.478099999999998
 20
-130.50829999999999
 30
0.0
 10
35.478099999999998
 20
-130.50829999999999
 30
0.0
 10
35.478200000000001
 20
-155.8083
 30
0.0
 10
35.478200000000001
 20
-155.8083
 30
0.0
 10
35.478200000000001
 20
-155.8083
 30
0.0
 10
35.478200000000001
 20
-155.8083
 30
0.0
 10
163.88749999999999
 20
-155.8083
 30
0.0
 10
163.88749999999999
 20
-155.8083
 30
0.0
 10
163.88749999999999
 20
-155.8083
 30
0.0
 10
163.88749999999999
 20
-109.8961
 30
0.0
 10
175.74760000000001
 20
-68.4435
 30
0.0
 10
197.3135
 20
-31.279599999999999
 30
0.0
 10
197.3135
 20
-31.279599999999999
 30
0.0
 10
197.3135
 20
-31.279599999999999
 30
0.0
 10
140.03980000000001
 20
1.8649
 30
0.0
 10
140.03980000000001
 20
1.8649
 30
0.0
 10
140.03980000000001
 20
1.8649
 30
0.0
 10
136.69659999999999
 20
-3.8963000000000001
 30
0.0
 10
133.53110000000001
 20
-9.7720000000000002
 30
0.0
 10
130.54920000000001
 20
-15.7545
 30
0.0
  0
SPLINE
  5
10C
100
AcDbEntity
  8
EBENE_1
 62
   253
100
AcDbSpline
210
0.0
220
0.0
230
1.0
 70
     1
 71
     3
 72
    40
 73
    36
 74
     0
 42
0.0000000001
 43
0.0000000001
 40
0.0
 40
0.0
 40
0.0
 40
0.0
 40
0.1111111111111111
 40
0.1111111111111111
 40
0.1111111111111111
 40
0.1111111111111111
 40
0.2222222222222222
 40
0.2222222222222222
 40
0.2222222222222222
 40
0.2222222222222222
 40
0.3333333333333333
 40
0.3333333333333333
 40
0.3333333333333333
 40
0.3333333333333333
 40
0.4444444444444444
 40
0.4444444444444444
 40
0.4444444444444444
 40
0.4444444444444444
 40
0.5555555555555556
 40
0.5555555555555556
 40
0.5555555555555556
 40
0.5555555555555556
 40
0.6666666666666667
 40
0.6666666666666667
 40
0.6666666666666667
 40
0.6666666666666667
 40
0.7777777777777779
 40
0.7777777777777779
 40
0.7777777777777779
 40
0.7777777777777779
 40
0.8888888888888891
 40
0.8888888888888891
 40
0.8888888888888891
 40
0.8888888888888891
 40
1.0
 40
1.0
 40
1.0
 40
1.0
 10
108.6827
 20
-155.8083
 30
0.0
 10
108.6827
 20
-109.1294
 30
0.0
 10
108.8871
 20
-62.4377
 30
0.0
 10
108.8871
 20
-15.7545
 30
0.0
 10
108.8871
 20
-15.7545
 30
0.0
 10
108.8871
 20
-15.7545
 30
0.0
 10
143.1438
 20
-15.7545
 30
0.0
 10
143.1438
 20
-15.7545
 30
0.0
 10
143.1438
 20
-15.7545
 30
0.0
 10
145.26249999999999
 20
-11.7479
 30
0.0
 10
147.47370000000001
 20
-7.7582000000000004
 30
0.0
 10
149.7809
 20
-3.7824
 30
0.0
 10
149.7809
 20
-3.7824
 30
0.0
 10
149.7809
 20
-3.7824
 30
0.0
 10
186.5806
 20
-25.140599999999999
 30
0.0
 10
186.5806
 20
-25.140599999999999
 30
0.0
 10
186.5806
 20
-25.140599999999999
 30
0.0
 10
166.5966
 20
-59.578400000000002
 30
0.0
 10
154.1114
 20
-102.97029999999999
 30
0.0
 10
152.3871
 20
-145.68260000000001
 30
0.0
 10
152.3871
 20
-145.68260000000001
 30
0.0
 10
152.3871
 20
-145.68260000000001
 30
0.0
 10
152.3871
 20
-155.75450000000001
 30
0.0
 10
152.3871
 20
-155.75450000000001
 30
0.0
 10
152.3871
 20
-155.75450000000001
 30
0.0
 10
152.3871
 20
-155.75450000000001
 30
0.0
 10
152.18000000000001
 20
-155.75450000000001
 30
0.0
 10
152.18000000000001
 20
-155.75450000000001
 30
0.0
 10
152.18000000000001
 20
-155.75450000000001
 30
0.0
 10
152.18000000000001
 20
-155.77250000000001
 30
0.0
 10
152.1798
 20
-155.79040000000001
 30
0.0
 10
152.1798
 20
-155.8083
 30
0.0
 10
152.1798
 20
-155.8083
 30
0.0
 10
152.1798
 20
-155.8083
 30
0.0
 10
108.6827
 20
-155.8083
 30
0.0
 10
108.6827
 20
-155.8083
 30
0.0
  0
SPLINE
  5
10D
100
AcDbEntity
  8
EBENE_1
100
AcDbSpline
210
0.0
220
0.0
230
1.0
 70
     1
 71
     3
 72
    20
 73
    16
 74
     0
 42
0.0000000001
 43
0.0000000001
 40
0.0
 40
0.0
 40
0.0
 40
0.0
 40
0.25
 40
0.25
 40
0.25
 40
0.25
 40
0.5
 40
0.5
 40
0.5
 40
0.5
 40
0.75
 40
0.75
 40
0.75
 40
0.75
 40
1.0
 40
1.0
 40
1.0
 40
1.0
 10
148.04920000000001
 20
-17.119599999999998
 30
0.0
 10
148.04920000000001
 20
-17.119599999999998
 30
0.0
 10
113.0492
 20
-17.119599999999998
 30
0.0
 10
113.0492
 20
-17.119599999999998
 30
0.0
 10
113.0492
 20
-17.119599999999998
 30
0.0
 10
113.0492
 20
-17.119599999999998
 30
0.0
 10
113.0492
 20
-25.119599999999998
 30
0.0
 10
113.0492
 20
-25.119599999999998
 30
0.0
 10
113.0492
 20
-25.119599999999998
 30
0.0
 10
113.0492
 20
-25.119599999999998
 30
0.0
 10
148.04920000000001
 20
-25.119599999999998
 30
0.0
 10
148.04920000000001
 20
-25.119599999999998
 30
0.0
 10
148.04920000000001
 20
-25.119599999999998
 30
0.0
 10
148.04920000000001
 20
-25.119599999999998
 30
0.0
 10
148.04920000000001
 20
-17.119599999999998
 30
0.0
 10
148.04920000000001
 20
-17.119599999999998
 30
0.0
  0
SPLINE
  5
10E
100
AcDbEntity
  8
EBENE_1
100
AcDbSpline
210
0.0
220
0.0
230
1.0
 70
     1
 71
     3
 72
    20
 73
    16
 74
     0
 42
0.0000000001
 43
0.0000000001
 40
0.0
 40
0.0
 40
0.0
 40
0.0
 40
0.25
 40
0.25
 40
0.25
 40
0.25
 40
0.5
 40
0.5
 40
0.5
 40
0.5
 40
0.75
 40
0.75
 40
0.75
 40
0.75
 40
1.0
 40
1.0
 40
1.0
 40
1.0
 10
166.04589999999999
 20
-59.829900000000002
 30
0.0
 10
166.04589999999999
 20
-59.829900000000002
 30
0.0
 10
113.0459
 20
-59.829900000000002
 30
0.0
 10
113.0459
 20
-59.829900000000002
 30
0.0
 10
113.0459
 20
-59.829900000000002
 30
0.0
 10
113.0459
 20
-59.829900000000002
 30
0.0
 10
113.0459
 20
-67.829899999999995
 30
0.0
 10
113.0459
 20
-67.829899999999995
 30
0.0
 10
113.0459
 20
-67.829899999999995
 30
0.0
 10
113.0459
 20
-67.829899999999995
 30
0.0
 10
166.04589999999999
 20
-67.829899999999995
 30
0.0
 10
166.04589999999999
 20
-67.829899999999995
 30
0.0
 10
166.04589999999999
 20
-67.829899999999995
 30
0.0
 10
166.04589999999999
 20
-67.829899999999995
 30
0.0
 10
166.04589999999999
 20
-59.829900000000002
 30
0.0
 10
166.04589999999999
 20
-59.829900000000002
 30
0.0
  0
SPLINE
  5
10F
100
AcDbEntity
  8
EBENE_1
100
AcDbSpline
210
0.0
220
0.0
230
1.0
 70
     1
 71
     3
 72
    20
 73
    16
 74
     0
 42
0.0000000001
 43
0.0000000001
 40
0.0
 40
0.0
 40
0.0
 40
0.0
 40
0.25
 40
0.25
 40
0.25
 40
0.25
 40
0.5
 40
0.5
 40
0.5
 40
0.5
 40
0.75
 40
0.75
 40
0.75
 40
0.75
 40
1.0
 40
1.0
 40
1.0
 40
1.0
 10
156.0898
 20
-96.708200000000005
 30
0.0
 10
156.0898
 20
-96.708200000000005
 30
0.0
 10
113.0492
 20
-96.708200000000005
 30
0.0
 10
113.0492
 20
-96.708200000000005
 30
0.0
 10
113.0492
 20
-96.708200000000005
 30
0.0
 10
113.0492
 20
-96.708200000000005
 30
0.0
 10
113.0492
 20
-104.70820000000001
 30
0.0
 10
113.0492
 20
-104.70820000000001
 30
0.0
 10
113.0492
 20
-104.70820000000001
 30
0.0
 10
113.0492
 20
-104.70820000000001
 30
0.0
 10
156.0898
 20
-104.70820000000001
 30
0.0
 10
156.0898
 20
-104.70820000000001
 30
0.0
 10
156.0898
 20
-104.70820000000001
 30
0.0
 10
156.0898
 20
-104.70820000000001
 30
0.0
 10
156.0898
 20
-96.708200000000005
 30
0.0
 10
156.0898
 20
-96.708200000000005
 30
0.0
  0
SPLINE
  5
110
100
AcDbEntity
  8
EBENE_1
100
AcDbSpline
210
0.0
220
0.0
230
1.0
 70
     1
 71
     3
 72
    20
 73
    16
 74
     0
 42
0.0000000001
 43
0.0000000001
 40
0.0
 40
0.0
 40
0.0
 40
0.0
 40
0.25
 40
0.25
 40
0.25
 40
0.25
 40
0.5
 40
0.5
 40
0.5
 40
0.5
 40
0.75
 40
0.75
 40
0.75
 40
0.75
 40
1.0
 40
1.0
 40
1.0
 40
1.0
 10
148.0497
 20
-130.50829999999999
 30
0.0
 10
148.0497
 20
-130.50829999999999
 30
0.0
 10
58.049799999999998
 20
-130.50829999999999
 30
0.0
 10
58.049799999999998
 20
-130.50829999999999
 30
0.0
 10
58.049799999999998
 20
-130.50829999999999
 30
0.0
 10
58.049799999999998
 20
-130.50829999999999
 30
0.0
 10
58.049799999999998
 20
-138.50829999999999
 30
0.0
 10
58.049799999999998
 20
-138.50829999999999
 30
0.0
 10
58.049799999999998
 20
-138.50829999999999
 30
0.0
 10
58.049799999999998
 20
-138.50829999999999
 30
0.0
 10
148.0497
 20
-138.50829999999999
 30
0.0
 10
148.0497
 20
-138.50829999999999
 30
0.0
 10
148.0497
 20
-138.50829999999999
 30
0.0
 10
148.0497
 20
-138.50829999999999
 30
0.0
 10
148.0497
 20
-130.50829999999999
 30
0.0
 10
148.0497
 20
-130.50829999999999
 30
0.0
  0
SPLINE
  5
111
100
AcDbEntity
  8
EBENE_1
100
AcDbSpline
210
0.0
220
0.0
230
1.0
 70
     1
 71
     3
 72
    20
 73
    16
 74
     0
 42
0.0000000001
 43
0.0000000001
 40
0.0
 40
0.0
 40
0.0
 40
0.0
 40
0.25
 40
0.25
 40
0.25
 40
0.25
 40
0.5
 40
0.5
 40
0.5
 40
0.5
 40
0.75
 40
0.75
 40
0.75
 40
0.75
 40
1.0
 40
1.0
 40
1.0
 40
1.0
 10
148.0498
 20
-146.50829999999999
 30
0.0
 10
148.0498
 20
-146.50829999999999
 30
0.0
 10
58.049799999999998
 20
-146.50829999999999
 30
0.0
 10
58.049799999999998
 20
-146.50829999999999
 30
0.0
 10
58.049799999999998
 20
-146.50829999999999
 30
0.0
 10
58.049799999999998
 20
-146.50829999999999
 30
0.0
 10
58.049799999999998
 20
-154.50829999999999
 30
0.0
 10
58.049799999999998
 20
-154.50829999999999
 30
0.0
 10
58.049799999999998
 20
-154.50829999999999
 30
0.0
 10
58.049799999999998
 20
-154.50829999999999
 30
0.0
 10
148.0498
 20
-154.50829999999999
 30
0.0
 10
148.0498
 20
-154.50829999999999
 30
0.0
 10
148.0498
 20
-154.50829999999999
 30
0.0
 10
148.0498
 20
-154.50829999999999
 30
0.0
 10
148.0498
 20
-146.50829999999999
 30
0.0
 10
148.0498
 20
-146.50829999999999
 30
0.0
  0
SPLINE
  5
112
100
AcDbEntity
  8
EBENE_1
100
AcDbSpline
210
0.0
220
0.0
230
1.0
 70
     1
 71
     3
 72
    20
 73
    16
 74
     0
 42
0.0000000001
 43
0.0000000001
 40
0.0
 40
0.0
 40
0.0
 40
0.0
 40
0.25
 40
0.25
 40
0.25
 40
0.25
 40
0.5
 40
0.5
 40
0.5
 40
0.5
 40
0.75
 40
0.75
 40
0.75
 40
0.75
 40
1.0
 40
1.0
 40
1.0
 40
1.0
 10
183.09889999999999
 20
-24.346800000000002
 30
0.0
 10
183.09889999999999
 20
-24.346800000000002
 30
0.0
 10
152.6995
 20
-7.0008999999999997
 30
0.0
 10
152.6995
 20
-7.0008999999999997
 30
0.0
 10
152.6995
 20
-7.0008999999999997
 30
0.0
 10
152.6995
 20
-7.0008999999999997
 30
0.0
 10
148.73480000000001
 20
-13.949299999999999
 30
0.0
 10
148.73480000000001
 20
-13.949299999999999
 30
0.0
 10
148.73480000000001
 20
-13.949299999999999
 30
0.0
 10
148.73480000000001
 20
-13.949299999999999
 30
0.0
 10
179.13409999999999
 20
-31.295200000000001
 30
0.0
 10
179.13409999999999
 20
-31.295200000000001
 30
0.0
 10
179.13409999999999
 20
-31.295200000000001
 30
0.0
 10
179.13409999999999
 20
-31.295200000000001
 30
0.0
 10
183.09889999999999
 20
-24.346800000000002
 30
0.0
 10
183.09889999999999
 20
-24.346800000000002
 30
0.0
  0
SPLINE
  5
113
100
AcDbEntity
  8
EBENE_1
100
AcDbSpline
210
0.0
220
0.0
230
1.0
 70
     1
 71
     3
 72
    20
 73
    16
 74
     0
 42
0.0000000001
 43
0.0000000001
 40
0.0
 40
0.0
 40
0.0
 40
0.0
 40
0.25
 40
0.25
 40
0.25
 40
0.25
 40
0.5
 40
0.5
 40
0.5
 40
0.5
 40
0.75
 40
0.75
 40
0.75
 40
0.75
 40
1.0
 40
1.0
 40
1.0
 40
1.0
 10
88.093199999999996
 20
-140.57939999999999
 30
0.0
 10
88.093199999999996
 20
-140.57939999999999
 30
0.0
 10
132.97219999999999
 20
-140.57939999999999
 30
0.0
 10
132.97219999999999
 20
-140.57939999999999
 30
0.0
 10
132.97219999999999
 20
-140.57939999999999
 30
0.0
 10
132.97219999999999
 20
-140.57939999999999
 30
0.0
 10
132.97219999999999
 20
-144.63900000000001
 30
0.0
 10
132.97219999999999
 20
-144.63900000000001
 30
0.0
 10
132.97219999999999
 20
-144.63900000000001
 30
0.0
 10
132.97219999999999
 20
-144.63900000000001
 30
0.0
 10
88.093199999999996
 20
-144.63900000000001
 30
0.0
 10
88.093199999999996
 20
-144.63900000000001
 30
0.0
 10
88.093199999999996
 20
-144.63900000000001
 30
0.0
 10
88.093199999999996
 20
-144.63900000000001
 30
0.0
 10
88.093199999999996
 20
-140.57939999999999
 30
0.0
 10
88.093199999999996
 20
-140.57939999999999
 30
0.0
  0
SPLINE
  5
114
100
AcDbEntity
  8
EBENE_1
100
AcDbSpline
210
0.0
220
0.0
230
1.0
 70
     1
 71
     3
 72
    20
 73
    16
 74
     0
 42
0.0000000001
 43
0.0000000001
 40
0.0
 40
0.0
 40
0.0
 40
0.0
 40
0.25
 40
0.25
 40
0.25
 40
0.25
 40
0.5
 40
0.5
 40
0.5
 40
0.5
 40
0.75
 40
0.75
 40
0.75
 40
0.75
 40
1.0
 40
1.0
 40
1.0
 40
1.0
 10
129.27189999999999
 20
-141.6473
 30
0.0
 10
129.73269999999999
 20
-141.6473
 30
0.0
 10
130.10849999999999
 20
-142.01329999999999
 30
0.0
 10
130.10849999999999
 20
-142.46180000000001
 30
0.0
 10
130.10849999999999
 20
-142.46180000000001
 30
0.0
 10
130.10849999999999
 20
-142.91040000000001
 30
0.0
 10
129.73269999999999
 20
-143.27619999999999
 30
0.0
 10
129.27189999999999
 20
-143.27619999999999
 30
0.0
 10
129.27189999999999
 20
-143.27619999999999
 30
0.0
 10
128.81110000000001
 20
-143.27619999999999
 30
0.0
 10
128.43520000000001
 20
-142.91040000000001
 30
0.0
 10
128.43520000000001
 20
-142.46180000000001
 30
0.0
 10
128.43520000000001
 20
-142.46180000000001
 30
0.0
 10
128.43520000000001
 20
-142.01329999999999
 30
0.0
 10
128.81110000000001
 20
-141.6473
 30
0.0
 10
129.27189999999999
 20
-141.6473
 30
0.0
  0
LWPOLYLINE
  5
115
100
AcDbEntity
  8
EBENE_1
100
AcDbPolyline
 90
        5
 70
     1
 10
60.8252
 20
-154.7101
 10
90.82
 20
-154.7101
 10
90.82
 20
-130.5083
 10
60.8252
 20
-130.5083
 10
60.8252
 20
-154.7101
  0
LWPOLYLINE
  5
116
100
AcDbEntity
  8
EBENE_1
 62
    98
100
AcDbPolyline
 90
        5
 70
     1
 10
66.5194
 20
-148.3083
 10
85.1258
 20
-148.3083
 10
85.1258
 20
-136.9101
 10
66.5194
 20
-136.9101
 10
66.5194
 20
-148.3083
  0
LWPOLYLINE
  5
117
100
AcDbEntity
  8
EBENE_1
100
AcDbPolyline
 90
        5
 70
     1
 10
68.8624
 20
-143.3832
 10
82.7828
 20
-143.3832
 10
82.7828
 20
-141.8352
 10
68.8624
 20
-141.8352
 10
68.8624
 20
-143.3832
  0
LWPOLYLINE
  5
118
100
AcDbEntity
  8
EBENE_1
 62
   251
100
AcDbPolyline
 90
        5
 70
     1
 10
36.9201
 20
-143.0619
 10
76.6767
 20
-143.0619
 10
76.6767
 20
-142.1565
 10
36.9201
 20
-142.1565
 10
36.9201
 20
-143.0619
  0
LWPOLYLINE
  5
119
100
AcDbEntity
  8
EBENE_1
 62
   253
100
AcDbPolyline
 90
        5
 70
     1
 10
46.807
 20
-143.9553
 10
57.5344
 20
-143.9553
 10
57.5344
 20
-141.2631
 10
46.807
 20
-141.2631
 10
46.807
 20
-143.9553
  0
LWPOLYLINE
  5
11A
100
AcDbEntity
  8
EBENE_1
 62
   251
100
AcDbPolyline
 90
        5
 70
     1
 10
135.7996
 20
-38.247
 10
143.7996
 20
-38.247
 10
143.7996
 20
-15.878
 10
135.7996
 20
-15.878
 10
135.7996
 20
-38.247
  0
LWPOLYLINE
  5
11B
100
AcDbEntity
  8
EBENE_1
 62
   251
100
AcDbPolyline
 90
        5
 70
     1
 10
117.2996
 20
-155.808
 10
125.2996
 20
-155.808
 10
125.2996
 20
-15.808
 10
117.2996
 20
-15.808
 10
117.2996
 20
-155.808
  0
SPLINE
  5
11C
100
AcDbEntity
  8
EBENE_1
100
AcDbSpline
210
0.0
220
0.0
230
1.0
 70
     0
 71
     3
 72
     8
 73
     4
 74
     0
 42
0.0000000001
 43
0.0000000001
 40
0.0
 40
0.0
 40
0.0
 40
0.0
 40
1.0
 40
1.0
 40
1.0
 40
1.0
 10
130.54920000000001
 20
-155.87799999999999
 30
0.0
 10
130.54920000000001
 20
-155.87799999999999
 30
0.0
 10
130.54920000000001
 20
-15.878
 30
0.0
 10
130.54920000000001
 20
-15.878
 30
0.0
  0
LWPOLYLINE
  5
11D
100
AcDbEntity
  8
EBENE_1
100
AcDbPolyline
 90
        5
 70
     1
 10
138.7992
 20
-38.247
 10
140.7992
 20
-38.247
 10
140.7992
 20
-15.878
 10
138.7992
 20
-15.878
 10
138.7992
 20
-38.247
  0
LWPOLYLINE
  5
11E
100
AcDbEntity
  8
EBENE_1
100
AcDbPolyline
 90
        5
 70
     1
 10
120.2992
 20
-155.808
 10
122.2992
 20
-155.808
 10
122.2992
 20
-15.808
 10
120.2992
 20
-15.808
 10
120.2992
 20
-155.808
  0
SPLINE
  5
11F
100
AcDbEntity
  8
EBENE_1
 62
   251
100
AcDbSpline
210
0.0
220
0.0
230
1.0
 70
     1
 71
     3
 72
    20
 73
    16
 74
     0
 42
0.0000000001
 43
0.0000000001
 40
0.0
 40
0.0
 40
0.0
 40
0.0
 40
0.25
 40
0.25
 40
0.25
 40
0.25
 40
0.5
 40
0.5
 40
0.5
 40
0.5
 40
0.75
 40
0.75
 40
0.75
 40
0.75
 40
1.0
 40
1.0
 40
1.0
 40
1.0
 10
135.73859999999999
 20
-155.8142
 30
0.0
 10
135.73859999999999
 20
-105.40179999999999
 30
0.0
 10
149.3203
 20
-58.063400000000001
 30
0.0
 10
173.0
 20
-17.256699999999999
 30
0.0
 10
173.0
 20
-17.256699999999999
 30
0.0
 10
173.0
 20
-17.256699999999999
 30
0.0
 10
179.92500000000001
 20
-21.254899999999999
 30
0.0
 10
179.92500000000001
 20
-21.254899999999999
 30
0.0
 10
179.92500000000001
 20
-21.254899999999999
 30
0.0
 10
156.92859999999999
 20
-60.884099999999997
 30
0.0
 10
143.73859999999999
 20
-106.85639999999999
 30
0.0
 10
143.73859999999999
 20
-155.8142
 30
0.0
 10
143.73859999999999
 20
-155.8142
 30
0.0
 10
143.73859999999999
 20
-155.8142
 30
0.0
 10
135.73859999999999
 20
-155.8142
 30
0.0
 10
135.73859999999999
 20
-155.8142
 30
0.0
  0
SPLINE
  5
120
100
AcDbEntity
  8
EBENE_1
100
AcDbSpline
210
0.0
220
0.0
230
1.0
 70
     1
 71
     3
 72
    20
 73
    16
 74
     0
 42
0.0000000001
 43
0.0000000001
 40
0.0
 40
0.0
 40
0.0
 40
0.0
 40
0.25
 40
0.25
 40
0.25
 40
0.25
 40
0.5
 40
0.5
 40
0.5
 40
0.5
 40
0.75
 40
0.75
 40
0.75
 40
0.75
 40
1.0
 40
1.0
 40
1.0
 40
1.0
 10
138.73859999999999
 20
-155.8142
 30
0.0
 10
138.73859999999999
 20
-105.9473
 30
0.0
 10
152.17349999999999
 20
-59.121099999999998
 30
0.0
 10
175.59690000000001
 20
-18.756
 30
0.0
 10
175.59690000000001
 20
-18.756
 30
0.0
 10
175.59690000000001
 20
-18.756
 30
0.0
 10
177.32810000000001
 20
-19.755500000000001
 30
0.0
 10
177.32810000000001
 20
-19.755500000000001
 30
0.0
 10
177.32810000000001
 20
-19.755500000000001
 30
0.0
 10
154.0754
 20
-59.8262
 30
0.0
 10
140.73859999999999
 20
-106.3109
 30
0.0
 10
140.73859999999999
 20
-155.8142
 30
0.0
 10
140.73859999999999
 20
-155.8142
 30
0.0
 10
140.73859999999999
 20
-155.8142
 30
0.0
 10
138.73859999999999
 20
-155.8142
 30
0.0
 10
138.73859999999999
 20
-155.8142
 30
0.0
  0
SPLINE
  5
121
100
AcDbEntity
  8
EBENE_1
 62
   251
100
AcDbSpline
210
0.0
220
0.0
230
1.0
 70
     1
 71
     3
 72
    20
 73
    16
 74
     0
 42
0.0000000001
 43
0.0000000001
 40
0.0
 40
0.0
 40
0.0
 40
0.0
 40
0.25
 40
0.25
 40
0.25
 40
0.25
 40
0.5
 40
0.5
 40
0.5
 40
0.5
 40
0.75
 40
0.75
 40
0.75
 40
0.75
 40
1.0
 40
1.0
 40
1.0
 40
1.0
 10
141.0986
 20
-39.738700000000001
 30
0.0
 10
145.7876
 20
-28.8185
 30
0.0
 10
151.11619999999999
 20
-18.2334
 30
0.0
 10
157.03639999999999
 20
-8.0312000000000001
 30
0.0
 10
157.03639999999999
 20
-8.0312000000000001
 30
0.0
 10
157.03639999999999
 20
-8.0312000000000001
 30
0.0
 10
163.96129999999999
 20
-12.029299999999999
 30
0.0
 10
163.96129999999999
 20
-12.029299999999999
 30
0.0
 10
163.96129999999999
 20
-12.029299999999999
 30
0.0
 10
158.00919999999999
 20
-22.2864
 30
0.0
 10
152.67179999999999
 20
-32.941299999999998
 30
0.0
 10
148.00049999999999
 20
-43.942700000000002
 30
0.0
 10
148.00049999999999
 20
-43.942700000000002
 30
0.0
 10
148.00049999999999
 20
-43.942700000000002
 30
0.0
 10
141.0986
 20
-39.738700000000001
 30
0.0
 10
141.0986
 20
-39.738700000000001
 30
0.0
  0
SPLINE
  5
122
100
AcDbEntity
  8
EBENE_1
100
AcDbSpline
210
0.0
220
0.0
230
1.0
 70
     1
 71
     3
 72
    20
 73
    16
 74
     0
 42
0.0000000001
 43
0.0000000001
 40
0.0
 40
0.0
 40
0.0
 40
0.0
 40
0.25
 40
0.25
 40
0.25
 40
0.25
 40
0.5
 40
0.5
 40
0.5
 40
0.5
 40
0.75
 40
0.75
 40
0.75
 40
0.75
 40
1.0
 40
1.0
 40
1.0
 40
1.0
 10
145.2372
 20
-42.7761
 30
0.0
 10
149.9572
 20
-31.66
 30
0.0
 10
155.3503
 20
-20.893999999999998
 30
0.0
 10
161.36439999999999
 20
-10.529999999999999
 30
0.0
 10
161.36439999999999
 20
-10.529999999999999
 30
0.0
 10
161.36439999999999
 20
-10.529999999999999
 30
0.0
 10
159.63319999999999
 20
-9.5305
 30
0.0
 10
159.63319999999999
 20
-9.5305
 30
0.0
 10
159.63319999999999
 20
-9.5305
 30
0.0
 10
153.57769999999999
 20
-19.965800000000002
 30
0.0
 10
148.14760000000001
 20
-30.805900000000001
 30
0.0
 10
143.39510000000001
 20
-41.9985
 30
0.0
 10
143.39510000000001
 20
-41.9985
 30
0.0
 10
143.39510000000001
 20
-41.9985
 30
0.0
 10
145.2372
 20
-42.7761
 30
0.0
 10
145.2372
 20
-42.7761
 30
0.0
  0
SPLINE
  5
123
100
AcDbEntity
  8
EBENE_1
100
AcDbSpline
210
0.0
220
0.0
230
1.0
 70
     0
 71
     3
 72
     8
 73
     4
 74
     0
 42
0.0000000001
 43
0.0000000001
 40
0.0
 40
0.0
 40
0.0
 40
0.0
 40
1.0
 40
1.0
 40
1.0
 40
1.0
 10
130.54920000000001
 20
-155.8083
 30
0.0
 10
130.54920000000001
 20
-104.44119999999999
 30
0.0
 10
144.38810000000001
 20
-56.206499999999998
 30
0.0
 10
168.5162
 20
-14.6271
 30
0.0
  0
SPLINE
  5
124
100
AcDbEntity
  8
EBENE_1
100
AcDbSpline
210
0.0
220
0.0
230
1.0
 70
     1
 71
     3
 72
    56
 73
    52
 74
     0
 42
0.0000000001
 43
0.0000000001
 40
0.0
 40
0.0
 40
0.0
 40
0.0
 40
0.0769230769230769
 40
0.0769230769230769
 40
0.0769230769230769
 40
0.0769230769230769
 40
0.1538461538461539
 40
0.1538461538461539
 40
0.1538461538461539
 40
0.1538461538461539
 40
0.2307692307692308
 40
0.2307692307692308
 40
0.2307692307692308
 40
0.2307692307692308
 40
0.3076923076923077
 40
0.3076923076923077
 40
0.3076923076923077
 40
0.3076923076923077
 40
0.3846153846153846
 40
0.3846153846153846
 40
0.3846153846153846
 40
0.3846153846153846
 40
0.4615384615384616
 40
0.4615384615384616
 40
0.4615384615384616
 40
0.4615384615384616
 40
0.5384615384615386
 40
0.5384615384615386
 40
0.5384615384615386
 40
0.5384615384615386
 40
0.6153846153846154
 40
0.6153846153846154
 40
0.6153846153846154
 40
0.6153846153846154
 40
0.6923076923076923
 40
0.6923076923076923
 40
0.6923076923076923
 40
0.6923076923076923
 40
0.7692307692307692
 40
0.7692307692307692
 40
0.7692307692307692
 40
0.7692307692307692
 40
0.846153846153846
 40
0.846153846153846
 40
0.846153846153846
 40
0.846153846153846
 40
0.9230769230769229
 40
0.9230769230769229
 40
0.9230769230769229
 40
0.9230769230769229
 40
1.0
 40
1.0
 40
1.0
 40
1.0
 10
159.06790000000001
 20
-48.904899999999998
 30
0.0
 10
159.06790000000001
 20
-48.904899999999998
 30
0.0
 10
159.08969999999999
 20
-48.903100000000002
 30
0.0
 10
159.08969999999999
 20
-48.903100000000002
 30
0.0
 10
159.08969999999999
 20
-48.903100000000002
 30
0.0
 10
154.93340000000001
 20
-58.845999999999997
 30
0.0
 10
151.8005
 20
-67.319800000000001
 30
0.0
 10
148.6832
 20
-77.547799999999995
 30
0.0
 10
148.6832
 20
-77.547799999999995
 30
0.0
 10
148.6832
 20
-77.547799999999995
 30
0.0
 10
140.6123
 20
-94.618700000000004
 30
0.0
 10
140.6123
 20
-94.618700000000004
 30
0.0
 10
140.6123
 20
-94.618700000000004
 30
0.0
 10
140.04949999999999
 20
-95.809200000000004
 30
0.0
 10
139.39449999999999
 20
-96.654499999999999
 30
0.0
 10
138.096
 20
-96.676299999999998
 30
0.0
 10
138.096
 20
-96.676299999999998
 30
0.0
 10
138.096
 20
-96.676299999999998
 30
0.0
 10
127.9644
 20
-96.847200000000001
 30
0.0
 10
127.9644
 20
-96.847200000000001
 30
0.0
 10
127.9644
 20
-96.847200000000001
 30
0.0
 10
126.42
 20
-96.873199999999997
 30
0.0
 10
126.3425
 20
-95.341499999999996
 30
0.0
 10
126.00020000000001
 20
-93.928700000000006
 30
0.0
 10
126.00020000000001
 20
-93.928700000000006
 30
0.0
 10
126.00020000000001
 20
-93.928700000000006
 30
0.0
 10
123.3477
 20
-82.980099999999993
 30
0.0
 10
123.3477
 20
-82.980099999999993
 30
0.0
 10
123.3477
 20
-82.980099999999993
 30
0.0
 10
123.3477
 20
-82.980099999999993
 30
0.0
 10
123.3477
 20
-51.789099999999998
 30
0.0
 10
123.3477
 20
-51.789099999999998
 30
0.0
 10
123.3477
 20
-51.789099999999998
 30
0.0
 10
123.3477
 20
-44.330500000000001
 30
0.0
 10
129.43109999999999
 20
-38.247100000000003
 30
0.0
 10
136.8897
 20
-38.247100000000003
 30
0.0
 10
136.8897
 20
-38.247100000000003
 30
0.0
 10
136.8897
 20
-38.247100000000003
 30
0.0
 10
151.65270000000001
 20
-38.247100000000003
 30
0.0
 10
151.65270000000001
 20
-38.247100000000003
 30
0.0
 10
151.65270000000001
 20
-38.247100000000003
 30
0.0
 10
151.65270000000001
 20
-38.247100000000003
 30
0.0
 10
151.65270000000001
 20
-38.3581
 30
0.0
 10
151.65270000000001
 20
-38.3581
 30
0.0
 10
151.65270000000001
 20
-38.3581
 30
0.0
 10
155.99340000000001
 20
-38.3581
 30
0.0
 10
159.53370000000001
 20
-41.898400000000002
 30
0.0
 10
159.53370000000001
 20
-46.239100000000001
 30
0.0
 10
159.53370000000001
 20
-46.239100000000001
 30
0.0
 10
159.53370000000001
 20
-47.173900000000003
 30
0.0
 10
159.3689
 20
-48.0717
 30
0.0
 10
159.06790000000001
 20
-48.904899999999998
 30
0.0
  0
SPLINE
  5
125
100
AcDbEntity
  8
EBENE_1
 62
    94
100
AcDbSpline
210
0.0
220
0.0
230
1.0
 70
     1
 71
     3
 72
    44
 73
    40
 74
     0
 42
0.0000000001
 43
0.0000000001
 40
0.0
 40
0.0
 40
0.0
 40
0.0
 40
0.1
 40
0.1
 40
0.1
 40
0.1
 40
0.2
 40
0.2
 40
0.2
 40
0.2
 40
0.3
 40
0.3
 40
0.3
 40
0.3
 40
0.4
 40
0.4
 40
0.4
 40
0.4
 40
0.5
 40
0.5
 40
0.5
 40
0.5
 40
0.6
 40
0.6
 40
0.6
 40
0.6
 40
0.7
 40
0.7
 40
0.7
 40
0.7
 40
0.7999999999999999
 40
0.7999999999999999
 40
0.7999999999999999
 40
0.7999999999999999
 40
0.8999999999999999
 40
0.8999999999999999
 40
0.8999999999999999
 40
0.8999999999999999
 40
1.0
 40
1.0
 40
1.0
 40
1.0
 10
159.06790000000001
 20
-48.904899999999998
 30
0.0
 10
159.06790000000001
 20
-48.904899999999998
 30
0.0
 10
159.08969999999999
 20
-48.903100000000002
 30
0.0
 10
159.08969999999999
 20
-48.903100000000002
 30
0.0
 10
159.08969999999999
 20
-48.903100000000002
 30
0.0
 10
154.93340000000001
 20
-58.845999999999997
 30
0.0
 10
151.8005
 20
-67.319800000000001
 30
0.0
 10
148.6832
 20
-77.547799999999995
 30
0.0
 10
148.6832
 20
-77.547799999999995
 30
0.0
 10
148.6832
 20
-77.547799999999995
 30
0.0
 10
140.6123
 20
-94.618700000000004
 30
0.0
 10
140.6123
 20
-94.618700000000004
 30
0.0
 10
140.6123
 20
-94.618700000000004
 30
0.0
 10
140.10169999999999
 20
-95.698700000000002
 30
0.0
 10
139.51560000000001
 20
-96.494500000000002
 30
0.0
 10
138.44159999999999
 20
-96.649199999999993
 30
0.0
 10
138.44159999999999
 20
-96.649199999999993
 30
0.0
 10
138.44159999999999
 20
-96.649199999999993
 30
0.0
 10
138.44159999999999
 20
-67.829899999999995
 30
0.0
 10
138.44159999999999
 20
-67.829899999999995
 30
0.0
 10
138.44159999999999
 20
-67.829899999999995
 30
0.0
 10
139.09979999999999
 20
-65.859700000000004
 30
0.0
 10
139.7671
 20
-63.926499999999997
 30
0.0
 10
140.4408
 20
-62.040399999999998
 30
0.0
 10
140.4408
 20
-62.040399999999998
 30
0.0
 10
143.17779999999999
 20
-54.378
 30
0.0
 10
146.501
 20
-46.240499999999997
 30
0.0
 10
150.13470000000001
 20
-38.247100000000003
 30
0.0
 10
150.13470000000001
 20
-38.247100000000003
 30
0.0
 10
150.13470000000001
 20
-38.247100000000003
 30
0.0
 10
151.65270000000001
 20
-38.247100000000003
 30
0.0
 10
151.65270000000001
 20
-38.247100000000003
 30
0.0
 10
151.65270000000001
 20
-38.247100000000003
 30
0.0
 10
155.99340000000001
 20
-38.247100000000003
 30
0.0
 10
159.53370000000001
 20
-41.898400000000002
 30
0.0
 10
159.53370000000001
 20
-46.239100000000001
 30
0.0
 10
159.53370000000001
 20
-46.239100000000001
 30
0.0
 10
159.53370000000001
 20
-47.173900000000003
 30
0.0
 10
159.3689
 20
-48.0717
 30
0.0
 10
159.06790000000001
 20
-48.904899999999998
 30
0.0
  0
SPLINE
  5
126
100
AcDbEntity
  8
EBENE_1
 62
    94
100
AcDbSpline
210
0.0
220
0.0
230
1.0
 70
     1
 71
     3
 72
    28
 73
    24
 74
     0
 42
0.0000000001
 43
0.0000000001
 40
0.0
 40
0.0
 40
0.0
 40
0.0
 40
0.1666666666666667
 40
0.1666666666666667
 40
0.1666666666666667
 40
0.1666666666666667
 40
0.3333333333333333
 40
0.3333333333333333
 40
0.3333333333333333
 40
0.3333333333333333
 40
0.5
 40
0.5
 40
0.5
 40
0.5
 40
0.6666666666666666
 40
0.6666666666666666
 40
0.6666666666666666
 40
0.6666666666666666
 40
0.8333333333333333
 40
0.8333333333333333
 40
0.8333333333333333
 40
0.8333333333333333
 40
1.0
 40
1.0
 40
1.0
 40
1.0
 10
127.0701
 20
-96.6113
 30
0.0
 10
126.36660000000001
 20
-96.131399999999999
 30
0.0
 10
126.2589
 20
-94.996300000000005
 30
0.0
 10
126.00020000000001
 20
-93.928700000000006
 30
0.0
 10
126.00020000000001
 20
-93.928700000000006
 30
0.0
 10
126.00020000000001
 20
-93.928700000000006
 30
0.0
 10
123.3477
 20
-82.980099999999993
 30
0.0
 10
123.3477
 20
-82.980099999999993
 30
0.0
 10
123.3477
 20
-82.980099999999993
 30
0.0
 10
123.3477
 20
-82.980099999999993
 30
0.0
 10
123.3477
 20
-51.789099999999998
 30
0.0
 10
123.3477
 20
-51.789099999999998
 30
0.0
 10
123.3477
 20
-51.789099999999998
 30
0.0
 10
123.3477
 20
-44.819699999999997
 30
0.0
 10
128.65969999999999
 20
-39.051699999999997
 30
0.0
 10
135.44159999999999
 20
-38.325000000000003
 30
0.0
 10
135.44159999999999
 20
-38.325000000000003
 30
0.0
 10
135.44159999999999
 20
-38.325000000000003
 30
0.0
 10
135.44159999999999
 20
-67.252099999999999
 30
0.0
 10
135.44159999999999
 20
-67.252099999999999
 30
0.0
 10
135.44159999999999
 20
-67.252099999999999
 30
0.0
 10
132.29140000000001
 20
-76.609999999999999
 30
0.0
 10
129.41059999999999
 20
-86.706699999999998
 30
0.0
 10
127.0701
 20
-96.6113
 30
0.0
  0
SPLINE
  5
127
100
AcDbEntity
  8
EBENE_1
 62
    94
100
AcDbSpline
210
0.0
220
0.0
230
1.0
 70
     1
 71
     3
 72
    16
 73
    12
 74
     0
 42
0.0000000001
 43
0.0000000001
 40
0.0
 40
0.0
 40
0.0
 40
0.0
 40
0.3333333333333333
 40
0.3333333333333333
 40
0.3333333333333333
 40
0.3333333333333333
 40
0.6666666666666666
 40
0.6666666666666666
 40
0.6666666666666666
 40
0.6666666666666666
 40
1.0
 40
1.0
 40
1.0
 40
1.0
 10
138.44159999999999
 20
-38.247100000000003
 30
0.0
 10
138.44159999999999
 20
-38.247100000000003
 30
0.0
 10
146.96260000000001
 20
-38.247100000000003
 30
0.0
 10
146.96260000000001
 20
-38.247100000000003
 30
0.0
 10
146.96260000000001
 20
-38.247100000000003
 30
0.0
 10
143.80770000000001
 20
-45.213200000000001
 30
0.0
 10
140.9085
 20
-52.182699999999997
 30
0.0
 10
138.44159999999999
 20
-58.788600000000002
 30
0.0
 10
138.44159999999999
 20
-58.788600000000002
 30
0.0
 10
138.44159999999999
 20
-58.788600000000002
 30
0.0
 10
138.44159999999999
 20
-38.247100000000003
 30
0.0
 10
138.44159999999999
 20
-38.247100000000003
 30
0.0
  0
SPLINE
  5
128
100
AcDbEntity
  8
EBENE_1
 62
    94
100
AcDbSpline
210
0.0
220
0.0
230
1.0
 70
     1
 71
     3
 72
    20
 73
    16
 74
     0
 42
0.0000000001
 43
0.0000000001
 40
0.0
 40
0.0
 40
0.0
 40
0.0
 40
0.25
 40
0.25
 40
0.25
 40
0.25
 40
0.5
 40
0.5
 40
0.5
 40
0.5
 40
0.75
 40
0.75
 40
0.75
 40
0.75
 40
1.0
 40
1.0
 40
1.0
 40
1.0
 10
129.27189999999999
 20
-141.60290000000001
 30
0.0
 10
129.73269999999999
 20
-141.60290000000001
 30
0.0
 10
130.10849999999999
 20
-141.97880000000001
 30
0.0
 10
130.10849999999999
 20
-142.43960000000001
 30
0.0
 10
130.10849999999999
 20
-142.43960000000001
 30
0.0
 10
130.10849999999999
 20
-142.90039999999999
 30
0.0
 10
129.73269999999999
 20
-143.27619999999999
 30
0.0
 10
129.27189999999999
 20
-143.27619999999999
 30
0.0
 10
129.27189999999999
 20
-143.27619999999999
 30
0.0
 10
128.81110000000001
 20
-143.27619999999999
 30
0.0
 10
128.43520000000001
 20
-142.90039999999999
 30
0.0
 10
128.43520000000001
 20
-142.43960000000001
 30
0.0
 10
128.43520000000001
 20
-142.43960000000001
 30
0.0
 10
128.43520000000001
 20
-141.97880000000001
 30
0.0
 10
128.81110000000001
 20
-141.60290000000001
 30
0.0
 10
129.27189999999999
 20
-141.60290000000001
 30
0.0
  0
SPLINE
  5
129
100
AcDbEntity
  8
EBENE_1
 62
    94
100
AcDbSpline
210
0.0
220
0.0
230
1.0
 70
     1
 71
     3
 72
    20
 73
    16
 74
     0
 42
0.0000000001
 43
0.0000000001
 40
0.0
 40
0.0
 40
0.0
 40
0.0
 40
0.25
 40
0.25
 40
0.25
 40
0.25
 40
0.5
 40
0.5
 40
0.5
 40
0.5
 40
0.75
 40
0.75
 40
0.75
 40
0.75
 40
1.0
 40
1.0
 40
1.0
 40
1.0
 10
132.6403
 20
-99.871600000000001
 30
0.0
 10
133.1011
 20
-99.871600000000001
 30
0.0
 10
133.4769
 20
-100.2474
 30
0.0
 10
133.4769
 20
-100.70829999999999
 30
0.0
 10
133.4769
 20
-100.70829999999999
 30
0.0
 10
133.4769
 20
-101.1691
 30
0.0
 10
133.1011
 20
-101.5449
 30
0.0
 10
132.6403
 20
-101.5449
 30
0.0
 10
132.6403
 20
-101.5449
 30
0.0
 10
132.17939999999999
 20
-101.5449
 30
0.0
 10
131.80359999999999
 20
-101.1691
 30
0.0
 10
131.80359999999999
 20
-100.70829999999999
 30
0.0
 10
131.80359999999999
 20
-100.70829999999999
 30
0.0
 10
131.80359999999999
 20
-100.2474
 30
0.0
 10
132.17939999999999
 20
-99.871600000000001
 30
0.0
 10
132.6403
 20
-99.871600000000001
 30
0.0
  0
SPLINE
  5
12A
100
AcDbEntity
  8
EBENE_1
 62
    94
100
AcDbSpline
210
0.0
220
0.0
230
1.0
 70
     1
 71
     3
 72
    28
 73
    24
 74
     0
 42
0.0000000001
 43
0.0000000001
 40
0.0
 40
0.0
 40
0.0
 40
0.0
 40
0.1666666666666667
 40
0.1666666666666667
 40
0.1666666666666667
 40
0.1666666666666667
 40
0.3333333333333333
 40
0.3333333333333333
 40
0.3333333333333333
 40
0.3333333333333333
 40
0.5
 40
0.5
 40
0.5
 40
0.5
 40
0.6666666666666666
 40
0.6666666666666666
 40
0.6666666666666666
 40
0.6666666666666666
 40
0.8333333333333333
 40
0.8333333333333333
 40
0.8333333333333333
 40
0.8333333333333333
 40
1.0
 40
1.0
 40
1.0
 40
1.0
 10
139.8355
 20
-96.999399999999994
 30
0.0
 10
139.8355
 20
-96.999399999999994
 30
0.0
 10
136.85910000000001
 20
-128.74539999999999
 30
0.0
 10
136.85910000000001
 20
-128.74539999999999
 30
0.0
 10
136.85910000000001
 20
-128.74539999999999
 30
0.0
 10
136.85910000000001
 20
-128.74539999999999
 30
0.0
 10
134.49619999999999
 20
-152.12200000000001
 30
0.0
 10
134.49619999999999
 20
-152.12200000000001
 30
0.0
 10
134.49619999999999
 20
-152.12200000000001
 30
0.0
 10
134.49619999999999
 20
-152.12200000000001
 30
0.0
 10
122.23090000000001
 20
-152.12200000000001
 30
0.0
 10
122.23090000000001
 20
-152.12200000000001
 30
0.0
 10
122.23090000000001
 20
-152.12200000000001
 30
0.0
 10
122.23090000000001
 20
-152.12200000000001
 30
0.0
 10
122.23090000000001
 20
-122.97199999999999
 30
0.0
 10
122.23090000000001
 20
-122.97199999999999
 30
0.0
 10
122.23090000000001
 20
-122.97199999999999
 30
0.0
 10
122.23090000000001
 20
-122.97199999999999
 30
0.0
 10
126.127
 20
-97.143699999999995
 30
0.0
 10
126.127
 20
-97.143699999999995
 30
0.0
 10
126.127
 20
-97.143699999999995
 30
0.0
 10
126.127
 20
-97.143699999999995
 30
0.0
 10
139.8355
 20
-96.999399999999994
 30
0.0
 10
139.8355
 20
-96.999399999999994
 30
0.0
  0
SPLINE
  5
12B
100
AcDbEntity
  8
EBENE_1
100
AcDbSpline
210
0.0
220
0.0
230
1.0
 70
     1
 71
     3
 72
    20
 73
    16
 74
     0
 42
0.0000000001
 43
0.0000000001
 40
0.0
 40
0.0
 40
0.0
 40
0.0
 40
0.25
 40
0.25
 40
0.25
 40
0.25
 40
0.5
 40
0.5
 40
0.5
 40
0.5
 40
0.75
 40
0.75
 40
0.75
 40
0.75
 40
1.0
 40
1.0
 40
1.0
 40
1.0
 10
129.27189999999999
 20
-141.60290000000001
 30
0.0
 10
129.73269999999999
 20
-141.60290000000001
 30
0.0
 10
130.10849999999999
 20
-141.97880000000001
 30
0.0
 10
130.10849999999999
 20
-142.43960000000001
 30
0.0
 10
130.10849999999999
 20
-142.43960000000001
 30
0.0
 10
130.10849999999999
 20
-142.90039999999999
 30
0.0
 10
129.73269999999999
 20
-143.27619999999999
 30
0.0
 10
129.27189999999999
 20
-143.27619999999999
 30
0.0
 10
129.27189999999999
 20
-143.27619999999999
 30
0.0
 10
128.81110000000001
 20
-143.27619999999999
 30
0.0
 10
128.43520000000001
 20
-142.90039999999999
 30
0.0
 10
128.43520000000001
 20
-142.43960000000001
 30
0.0
 10
128.43520000000001
 20
-142.43960000000001
 30
0.0
 10
128.43520000000001
 20
-141.97880000000001
 30
0.0
 10
128.81110000000001
 20
-141.60290000000001
 30
0.0
 10
129.27189999999999
 20
-141.60290000000001
 30
0.0
  0
SPLINE
  5
12C
100
AcDbEntity
  8
EBENE_1
100
AcDbSpline
210
0.0
220
0.0
230
1.0
 70
     1
 71
     3
 72
    20
 73
    16
 74
     0
 42
0.0000000001
 43
0.0000000001
 40
0.0
 40
0.0
 40
0.0
 40
0.0
 40
0.25
 40
0.25
 40
0.25
 40
0.25
 40
0.5
 40
0.5
 40
0.5
 40
0.5
 40
0.75
 40
0.75
 40
0.75
 40
0.75
 40
1.0
 40
1.0
 40
1.0
 40
1.0
 10
132.6403
 20
-99.871600000000001
 30
0.0
 10
133.1011
 20
-99.871600000000001
 30
0.0
 10
133.4769
 20
-100.2474
 30
0.0
 10
133.4769
 20
-100.70829999999999
 30
0.0
 10
133.4769
 20
-100.70829999999999
 30
0.0
 10
133.4769
 20
-101.1691
 30
0.0
 10
133.1011
 20
-101.5449
 30
0.0
 10
132.6403
 20
-101.5449
 30
0.0
 10
132.6403
 20
-101.5449
 30
0.0
 10
132.17939999999999
 20
-101.5449
 30
0.0
 10
131.80359999999999
 20
-101.1691
 30
0.0
 10
131.80359999999999
 20
-100.70829999999999
 30
0.0
 10
131.80359999999999
 20
-100.70829999999999
 30
0.0
 10
131.80359999999999
 20
-100.2474
 30
0.0
 10
132.17939999999999
 20
-99.871600000000001
 30
0.0
 10
132.6403
 20
-99.871600000000001
 30
0.0
  0
SPLINE
  5
12D
100
AcDbEntity
  8
EBENE_1
100
AcDbSpline
210
0.0
220
0.0
230
1.0
 70
     1
 71
     3
 72
    28
 73
    24
 74
     0
 42
0.0000000001
 43
0.0000000001
 40
0.0
 40
0.0
 40
0.0
 40
0.0
 40
0.1666666666666667
 40
0.1666666666666667
 40
0.1666666666666667
 40
0.1666666666666667
 40
0.3333333333333333
 40
0.3333333333333333
 40
0.3333333333333333
 40
0.3333333333333333
 40
0.5
 40
0.5
 40
0.5
 40
0.5
 40
0.6666666666666666
 40
0.6666666666666666
 40
0.6666666666666666
 40
0.6666666666666666
 40
0.8333333333333333
 40
0.8333333333333333
 40
0.8333333333333333
 40
0.8333333333333333
 40
1.0
 40
1.0
 40
1.0
 40
1.0
 10
138.7773
 20
-96.999399999999994
 30
0.0
 10
138.7773
 20
-96.999399999999994
 30
0.0
 10
136.09649999999999
 20
-128.74539999999999
 30
0.0
 10
136.09649999999999
 20
-128.74539999999999
 30
0.0
 10
136.09649999999999
 20
-128.74539999999999
 30
0.0
 10
136.09649999999999
 20
-128.74539999999999
 30
0.0
 10
133.68440000000001
 20
-152.12200000000001
 30
0.0
 10
133.68440000000001
 20
-152.12200000000001
 30
0.0
 10
133.68440000000001
 20
-152.12200000000001
 30
0.0
 10
133.68440000000001
 20
-152.12200000000001
 30
0.0
 10
122.23090000000001
 20
-152.12200000000001
 30
0.0
 10
122.23090000000001
 20
-152.12200000000001
 30
0.0
 10
122.23090000000001
 20
-152.12200000000001
 30
0.0
 10
122.23090000000001
 20
-152.12200000000001
 30
0.0
 10
123.1493
 20
-123.1688
 30
0.0
 10
123.1493
 20
-123.1688
 30
0.0
 10
123.1493
 20
-123.1688
 30
0.0
 10
123.1493
 20
-123.1688
 30
0.0
 10
127.2814
 20
-97.143699999999995
 30
0.0
 10
127.2814
 20
-97.143699999999995
 30
0.0
 10
127.2814
 20
-97.143699999999995
 30
0.0
 10
127.2814
 20
-97.143699999999995
 30
0.0
 10
138.7773
 20
-96.999399999999994
 30
0.0
 10
138.7773
 20
-96.999399999999994
 30
0.0
  0
ENDSEC
  0
SECTION
  2
OBJECTS
  0
DICTIONARY
  5
19
100
AcDbDictionary
  3
ACAD_GROUP
350
1A
  3
ACAD_MLINESTYLE
350
1B
  0
DICTIONARY
  5
1A
102
{ACAD_REACTORS
330
19
102
}
100
AcDbDictionary
  0
DICTIONARY
  5
1B
102
{ACAD_REACTORS
330
19
102
}
100
AcDbDictionary
  3
STANDARD
350
1C
  0
MLINESTYLE
  5
1C
102
{ACAD_REACTORS
330
1B
102
}
100
AcDbMlineStyle
  2
STANDARD
 70
     0
  3

 62
     0
 51
90.0
 52
90.0
 71
     2
 49
0.5
 62
   256
  6
BYLAYER
 49
-0.5
 62
   256
  6
BYLAYER
  0
DICTIONARY
  5
22
102
{ACAD_REACTORS
330
19
102
}
100
AcDbDictionary
  0
ENDSEC
  0
EOF
